Afi

Afi - Sacrifice Theory guitar tab

-------------------------------------------------------------------------------

SACRIFICE THEORY - AFI

-------------------------------------------------------------------------------

By:pattyboy15@aol.com for corrections

Jade uses barre chords for almost everything, but power chords are easier to

play this song. You decide what you want to use.

Key:

* = play more than once

pm= palm mute

INTRO (mess around with picking notes with barre chords):

e|--------|

B|--------|

G|--------|

D|--9*----|

A|--9*----|

E|--7*----|

VERSE

e|-----------------------------------------------|

B|-----------------------------------------------|

G|-----------7-----------7-----------7-----------|

D|--9*-5--7--7--9*-5--7--7--9*-5--7--7--5*-7*----|

A|--9*-5--7--5--9*-5--7--5--9*-5--7--5--5*-7*----|

E|--7*-3--5-----7*-3--5-----7*-3--5-----3*-5*----|

CHORUS

e|------------------------|

B|------------------------|

G|--7*----------7---------|

D|--7*-7*-9*-5*-7--7*-5*--|

A|--5*-7*-9*-5*-5--7*-5*--|

E|-----5*-7*-3*----5*-3*--|

BREAKDOWN 1 (listen to song for palm muting)

e|---------------|-------------------|

B|---------------|-------------------|

G|--------7*-----|-------------------|

D|--9*-5*-7*-7*--|-x4-----5-4-2--5-7-|

A|--9*-5*-5*-7*--|--------5-4-2--5-7-|

E|--7*-3*----5*--|--------3-2-0--3-5-|

ORDER:

INTRO

VERSE x2

CHORUS x2

VERSE

VERSE (pm)

VERSE

CHORUS x2

BREAK

CHORUS x2 [Note 1]

VERSE [Note 2]

{Note 1} I know there's a little solo here, but I could not figure out what it

was. Playing the normal chorus sounds good though.

{Note 2} You should play the final verse like this: BGADBGADBGADB

For people who don't know chords, here is the tab:

B G A D

e|-------------|

B|-------------|

G|----------7--|

D|-9--5--7--7--|

A|-9--5--7--5--|

E|-7--3--5-----|

And that's about it. Any questions send them to me.

===============================================================================

Get this song at:  amazon.com sheetmusicplus.com

Share your thoughts

0 Comments found