Afi

Afi - Yurf Rendemein guitar tab

-------------------------------------------------------------------------------

YURF RENDENMEIN - AFI

-------------------------------------------------------------------------------

Intro:

e-|-------------------------------------|

B-|-------------------------------------|

G-|-------------------------------------|

D-|-5---5-5-5-5-8-8-8-8-----------------|

A-|-3---3-3-3-3-6-6-6-6-8-8-8-8-6-6-6-6-|

E-|---------------------6-6-6-6-4-4-4-4-|

Verse:

e-|---------------------------------------------------------------------------------

B-|---------------------------------------------------------------------------------

G-|---------------------------------------------------------------------------------

D-|-5-5-5-5-5-x-x-x-5-5-5-5-5-x-x-x-5-5-5-5-5-x-x-x-----------x-x-x-5-5-5-5-5-x-x-x-

A-|-3-3-3-3-3-x-x-x-3-3-3-3-3-x-x-x-3-3-3-3-3-x-x-x-6-6-6-6-6-x-x-x-3-3-3-3-3-x-x-x-

E-|-------------------------------------------------4-4-4-4-4-----------------------

e-|-------------------------------------------------------------------------

B-|-------------------------------------------------------------------------

G-|-------------------------------------------------------------------------

D-|-5-5-5-5-5-x-x-x-5-5-5-5-5-x-x-x-8-8-8-8-8-8-8-8-------------------------

A-|-3-3-3-3-3-x-x-x-3-3-3-3-3-x-x-x-6-6-6-6-6-6-6-6-------------------------

E-|-------------------------------------------------------------------------

e-|-------------------------------------------------------------------------

B-|-------------------------------------------------------------------------

G-|-------------------------------------------------------------------------

D-|-5-5-5-5-5-5-5-5-------------------------------------------------5-5-5-5-

A-|-3-3-3-3-3-3-3-3-6-6-6-6-6-6-6-6-8-8-8-8-8-8-8-8-6-6-6-6-6-6-6-6-3-3-3-3-

E-|-----------------4-4-4-4-4-4-4-4-6-6-6-6-6-6-6-6-4-4-4-4-4-4-4-4---------

e-|---------------------------------------------------------|

B-|---------------------------------------------------------|

G-|---------------------------------------------------------|

D-|-5-5-5-5---------------------------------8-8-8-8-8-8-8-8-|

A-|-3-3-3-3-6-6-6-6-6-6-6-6-8-8-8-8-8-8-8-8-6-6-6-6-6-6-6-6-|

E-|---------4-4-4-4-4-4-4-4-6-6-6-6-6-6-6-6-----------------|

Chorus:

e-|----------------------------------------------------------------------

B-|----------------------------------------------------------------------

G-|----------------------------------------------------------------------

D-|-------------13---------------------13---------------------13---------

A-|-10-10-10-10-11-13-8-10-10-10-10-10-11-13-8-10-10-10-10-10-11-13-8-10-

E-|--8--8--8--8----11-6--8--8--8--8--8----11-6--8--8--8--8--8----11-6--8-

e-|---------------------|

B-|---------------------|

G-|---------------------|

D-|---------------------|

A-|-8-8-8-8-10-10-10-10-|

E-|-6-6-6-6--8--8--8--8-|

Outro:

e-|-------------------------------------------------|

B-|-------------------------------------------------|

G-|-------------------------------------------------|

D-|-------------11-11-11-11-------------11-11-11-11-|

A-|-10-10-10-10--9--9--9--9-10-10-10-10--9--9--9--9-|

E-|--8--8--8--8--------------8--8--8--8-------------|

-------------------------------------------------------------------------------

Get this song at:  amazon.com sheetmusicplus.com

Share your thoughts

0 Comments found