Afi

Afi - Open Your Eyes bass tab

-------------------------------------------------------------------------------

OPEN YOUR EYES - AFI

-------------------------------------------------------------------------------

Intro and main part

G|------------------------------------------------------------------

D|------------------------------------------------------------------

A|------------------------------------------------------------------

E|----0-0-0-0-2-3-2-3-3-3-3-3-2-3-0-0-0-0-2-3-2-3-3-3-3-5-5---------

Verse

G|------------------------------------------------------------------

D|------------------------------------------------------------------

A|------------------------------------------------------------------

E|----3-3-3-3-3-5-5-5-5-3-3-5-3-3-5-3-3-5-3-3-5-3-3-3-3-5-5-5-5-----

funky bass riff

G|------------------------------------------------------------------

D|--------------3-5-3-----------------------------------------------

A|----------3-5-------5---------------------------------------------

E|----0-3-5---------------------------------------------------------

Get this song at:  amazon.com sheetmusicplus.com

Share your thoughts

0 Comments found