Afi

Afi - Advances In Modern Technology guitar tab

AFI Rules! Ride BMX!

Intro:

e-|-------------------------------------------------------------

B-|-------------------------------------------------------------

G-|-------------------------------------------------------------

D-|-9-9-9-9-9-9-9-9-12-12-11-11-----------------7-7-7-7-7-7-7-7-

A-|-7-7-7-7-7-7-7-7-10-10--9--9-10-10-10-10-10--5-5-5-5-5-5-5-5-

E-|------------------------------8--8--8--8--8------------------

e-|-------------------------------------------------------------|

B-|-----------------------------------------------------8-7-8-7-|

G-|-----------------------------------------------------7-7-7-7-|

D-|-9-9-9-9-9-9-9-9-12-12-11-11---------------------------------|

A-|-7-7-7-7-7-7-7-7-10-10--9--9-10-10-10-10-10-10-10-10---------|

E-|------------------------------8--8--8--8--8--8--8--8---------|

Verse:

e-|-------------------------------------------------------------|

B-|-------------------------------------------------------------|

G-|-------------------------------------------------------------|

D-|-9-9-9-7-7-7-7-9-9-9-5-5-5-4-4-4-4-2-2-2-2-4-4-4-4-5-5-7-7---|

A-|-7-7-7-5-5-5-5-7-7-7-3-3-3-2-2-2-2-0-0-0-0-2-2-2-2-3-3-5-5---|

E-|-------------------------------------------------------------|

Chorus:

e-|-------------------------------------------------------------|

B-|-------------------------------------------------------------|

G-|-------------------------------------------------------------|

D-|-9-9-9-7-7-7-5-5-5-5-5-5-5-9-9-9-12-11-----------------------|

A-|-7-7-7-5-5-5-3-3-3-3-3-3-3-7-7-7-10--9-10-10-10-10-12-12-12--|

E-|----------------------------------------8--8--8--8-10-10-10--|

Get this song at:  amazon.com sheetmusicplus.com

Share your thoughts

0 Comments found