Afi

Afi - The Secret Ninja guitar tab

A.F.I

this secret ninja: very proud of ya

intro/verse

e --------------------------------------------------------------------

B --------------------------------------------------------------------

G-----------------12-----7-7-7-7-7-7------------------------------

D----9-9-9-9------12-----7-7-7-7-7-7------------------------------

A----9-9-9-9------10-----5-5-5-5-5-5------------------------------

E----7-7-7-7---------------------------------------------------------

----------------------------------------------------------------------

----------------------------------------------------------------------

-----------------12---7-7-7-----------------------------------------

----9-9-9-9------12---7-7-7--5-5--7-7-----------------------------

----9-9-9-9------10---5-5-5--5-5--7-7-----------------------------

----7-7-7-7------------------3-3--5-5-----------------------------

------------------------------------------------------------------------

------------------------------------------------------------------------

-----------------12---7-7-7-7-7-7----11-11-11-11-11-11----------

---9-9-9-9-------12---7-7-7-7-7-7----11-11-11-11-11-11----------

---9-9-9-9-------10---5-5-5-5-5-5-----9-9-9-9-9-9-9-9-------------

---7-7-7-7-------------------------------------------------------------

chorus

--------------------------------------------------------------------------

--------------------------------------------------------------------------

-----------------------9-9----12-12----7-----------------------------

---9-9-9-9---7-7-7-7---9-9----12-12----7-----------------------------

---9-9-9-9---7-7-7-7---7-7----10-10----5-----------------------------

---7-7-7-7---5-5-5-5---------------------------------------------------

--------------------------------------------------------------------------

--------------------------------------------------------------------------

--------------------------------------------------------------------------

---9-9-9-9---7-7-7-7---12-12---7-7--5-5------------------------------

---9-9-9-9---7-7-7-7---12-12---7-7--5-5------------------------------

---7-7-7-7---5-5-5-5---10-10---5-5--3-3------------------------------

interlude

--------------------------------------------------------------------------

--------------------------------------------------------------------------

-----------------------7-7-7-7---9-9-9-9----------------------------

---9-9-9-9---5-5-5-5---7-7-7-7---9-9-9-9----------------------------

---9-9-9-9---5-5-5-5---5-5-5-5---7-7-7-7----------------------------

---7-7-7-7---3-3-3-3---------------------------------------------------

-------------------------------------------------------------------------

-------------------------------------------------------------------------

-----------------------7-7-7-7---------------------------------------

---9-9-9-9---5-5-5-5---7-7-7-7---4-4-4-4----------------------------

---9-9-9-9---5-5-5-5---5-5-5-5---4-4-4-4----------------------------

---7-7-7-7---3-3-3-3-------------2-2-2-2---------------------------

+ I Cant Help My Laughter As She Cries +

Get this song at:  amazon.com sheetmusicplus.com

Share your thoughts

0 Comments found