Afi

Afi - 3 1 2 bass tab

Band:AFI

Song:3 1/2

Album:A Fire Inside E.P.

Bassist:Hunter

Intro

Part 1

G------------------------------]--------------------------------------]

D------------------------------]----------------------------2>--------]

A------------------------------]--------------------------------------]

E--0(let ring)------00---------]—-----0(let ring)---------------------]

Part 2

“Why!?”

G---------------------------------------------------------------------]

D---------------------------------------------------------------------]

A-22-----0000------2222------000000-----------------------------------]

E---------------------------------------------------------------------]

Verse

G---------------------------------------------------------------------]

D------------------------------------55-------------------------------]

A---------------------3>-----6665>------------------------------------]

E-----5>-------8887>--------------------------------------------------]

G---------------------------------------------------------------------]

D-----------------------8>--------------------------------------------]

A---------------------------------------------------------------------]

E------5>--------8887>------------------------------------------------]

G---------------------------------------------------------------------]

D------------------------------------55-------------------------------]

A---------------------3>-----6665>------------------------------------]

E-----5>-------8887>--------------------------------------------------]

G-----------------------------------3>--------------------------------]

D--------3>-----------------------------------------------------------]

A-----------------6>5>--------1>--------------------------------------]

E---------------------------------------------------------------------]

Chorus:

“I’m so sick so sick of myself!”

G----------------------------------------------]----------------------]

D----------------------------------------------]----------------------]

A---22-----0000------2222------000000----------]---(end on 000000)----]

E----------------------------------------0>----]----------------------]

Bridge part 1 is same as intro. part 1

G---------------------------------------------------------------------]

D--------------------------------------------(suffocation)------------]

A--------------------------------------------(asphyxiation)-----------]

E---0(let ring)-----00------------------------------------------------]

Bridge part 2

G----------------------------------]----------------------------------]

D---------------------2>-----------]-------------2222222222-----------]

A----------------------------------]----------------------------------]

E----0(let ring)-00----------------]----------------------------------]

End

G----------------------------------------]----------------------------]

D----------------------------------------]------------------2>--------]

A-22-----0000------2222------000000------]----------------------------]

E----------------------------------------]------0>--------------------]

Taken from The BassMasta -- http://www.tabs-database.com

Get this song at:  amazon.com sheetmusicplus.com

Share your thoughts

0 Comments found