Afi

Afi - Dont Make Me Ill guitar tab

-------------------------------------------------------------------------------

DON'T MAKE ME ILL - AFI

-------------------------------------------------------------------------------

I couldn't find any good tabs for this song so I decided to tab it myself.

This is how I play it. Here it goes.

Intro

e------------------------------------------------------------------------------

b------------------------------------------------------------------------------

g--7777------------------------------------------------------------------------

d--7777---4/5/4/555/4/5555555---X4--then------77777777/6/7/6/7/6/7/6/777777----

a--5555---4/5/4/555/4/5555555-----------------77777777/6/7/6/7/6/7/6/777777----

E---------2/3/2/333/2/3333333-----------------55555555/4/5/4/5/4/5/4/555555----

Verse

e-----------------------------------------------------------------------------

b-----------------------------------------------------------------------------

g--7777---------------------7777----------------------------------------------

d--7777--5555--777777777----7777--7777--5555--777777777------X2---------------

a--5555--5555--777777777----5555--7777--5555--777777777-----------------------

E--------3333--555555555----------5555--3333--555555555-----------------------

Chorus

e------------------------------------------------------------------------------

b------------------------------------------------------------------------------

g--777777----------------------------------------------------------------------

d--777777--777777---999999---555555----X2--------------------------------------

a--555555--777777---999999---555555--------------------------------------------

E----------555555---777777---333333--------------------------------------------

Verse X2

Chorus X4 then

e-------------------------------------------------------------------------------

b-------------------------------------------------------------------------------

g-----------------------------------------------------------7--7----------------

d--77777777---55555555---X2--then--77777777---55555555--X2--7--7----------------

a--77777777---55555555-------------77777777---55555555------5--5----------------

E--55555555---33333333-------------55555555---33333333--------------------------

--pm--- -pm----

Solo thing

e-------------------------------------------------------------------------------

b-------------------------------------------------------------------------------

g----------------------------6-6--9--7--6---------------------------------------

d------4-4--7--5--4-----7-7-----------------------X2----------------------------

a--5-5--------------------------------------------------------------------------

E-------------------------------------------------------------------------------

Solo cont.

e-------------------------------------------------------------------------------

b-------------------------------------------------------------------------------

g---------------------------------------6--9-9--7--6----------------------------

d--------4-4--7--5--4----9--9--------7----------------------X2------------------

a--5-5-------------------9--9---------------------------------------------------

E------------------------7--7---------------------------------------------------

Chorus X6 then let a D5 ring and then

Chorus played faster X4

End on

e------

b------

g--7---

d--7---

a--5---

E------

That's it,I hope it's right. Listen to the song to get the right strumming.

Have fun.

Tabbed by Bryan

ania3@mindspring.com

7/18/01

-------------------------------------------------------------------------------

Get this song at:  amazon.com sheetmusicplus.com

Share your thoughts

0 Comments found