Afi

Afi - Coin Return guitar tab

-------------------------------------------------------------------------------

COIN RETURN - AFI

-------------------------------------------------------------------------------

Shut Your Mouth and Open Your Eyes (1998)

Great Hardcore album!

#= Pick Slide /= Slide down (--)= Palm Mute

Intro

|------------------------------------>

|------------------------------------>

|------------------------------------>

|----8888-----8888-----8888-----888-->

|777-7777-777-7777-777-7777-777-777-->

|------------------------------------>

Intro Cont...

|--------------------> |------------------------>

|--------------------> |------------------------>

|--------------------> |----------------12-9-9-->

|22-255-588-8-10-12--> X3 |22-255-588-8-10-12-9-9-->

|22-255-588-8-10-12--> |22-255-588-8-10-10-7-7-->

|00-033-366-6-8--10--> |00-033-366-6-8---------->

Verse

|--------------------------------------->

|--------------------------------------->

|99--999-999-99------------------------->

|99--999-999-99-----22-255-588-8-10-12--> X2

|77--777-777-77-----22-255-588-8-10-12-->

|00--000-000-00-9/--00-033-366-6-8--10-->

Verse Cont...

|------------------------>

|------------------------>

|------------------------>

|99-999-91010-101212-12--> X1

|99-999-91010-101212-12-->

|77-777-78-8--8-1010-10-->

Chorus

|------------------------------------------------>

|------------------------------------------------>

|--------------------------------1212-121111-11-->

|1414-14-1414141212-55-588-8-8-8-1212-121111-11-->

|1414-14-1414141212-55-588-8-8-8-1010-109-9--9--->

|1212-12-1212121010-33-366-6-6-6----------------->

|----------------------------------------------------------->

|----------------------------------------------------------->

|----------------------------------------------------------->

|1414-14-1414141212-55-588-8-8-8-55-544-4-22-2-2-2---------->

|1414-14-1414141212-55-588-8-8-8-55-544-4-22-2-2-2---------->

|1212-12-1212121010-33-366-6-6-6-33-322-2-00-0-0-0##########>

Play Verse again, and Verse Cont...

Play Chorus again( note: Don't play the ending "E" Power Chords and No Pick

Slide. Just

go straight into the Special).

Special

|-----------------> |------------------------------------------------>

|-----------------> |------------------------------------------------>

|----9---12--999--> |-------------------------------------7-7777777-->

|----9---12--999--> X1 |2-222-22--54-444-44--75-555-55--5777-7-7777777--> X2

|(--)7(-)10--777--> |2-222-22--54-444-44--75-555-55--5777-5-5555555-->

|0000-000--00000--> |0-000-00--32-222-22--53-333-33--3555------------>

Bass fill.

Play Intro a little longer.

Play Intro Cont... First riffX7 and second part once. End.

Tabbed By: Ricky Riot, 9/25/00.

RickyRiot@Hotmail.com

Music By AFI. Copyright(C)1997 Ex Noctem Nacemur. All rights reserved.

-------------------------------------------------------------------------------

Get this song at:  amazon.com sheetmusicplus.com

Share your thoughts

0 Comments found