Afi

Afi - Rizzo In A Box guitar tab

-------------------------------------------------------------------------------

RIZZO IN A BOX - AFI

-------------------------------------------------------------------------------

By:Rudy De Stefano/Punker1028@aol.com

Intro: 0:06 (1X)

e|------------|

B|------------|

G|------------|

D|--7777--9---|

A|--7777--9---|

E|--5555--7---|

Verse: 0:10 (2x)

Palm Mute Most Of It

e|--------------------------------------------------------|

B|--------------------------------------------------------|

G|--66666--99999--66666---------66666--99999--------------|

D|--66666--99999--66666--99999--66666--99999---7777-9999--|

A|--44444--77777--44444--99999--44444--77777---7777-9999--|

E|-----------------------77777-----------------5555-7777--|

Chorus: 0:28 (4x)

e|---------------------------------|

B|---------------------------------|

G|--99999---------99999------------|

D|--99999--77777--99999--11-11--9--|

A|--77777--77777--77777--11-11--9--|

E|---------55555--------- 9- 9--7--|

Verse: 0:41 (4x)

Chorus: 1:00 (12x)

(That's It!The Verse Part Kicks Ass,It Sounds Like TSOL!)

===============================================================================

Get this song at:  amazon.com sheetmusicplus.com

Share your thoughts

0 Comments found