Afi

Afi - The missing frame bass tab

Missing Frame Bass Tab by AFI

Intro

G:----------------------------------------------|

D:----------------------------------------------|

A:22--2-22--2-22--2-22--4-----------------------| x2

E:-----------------------33--3-33--3-33--3-33--3|

G:----------------------------------------------|

D:----------------------------------------------|

A:22--2-22--2-22--2-22--4-----------------------|

E:-----------------------33--3-33--3-33--3-33--3|

G:----------------------------------------------|

D:----------------------------------------------|

A:22--2-22--2-22--2-22--4-----------------------|

E:-----------------------33--3-33--3-33~--------|

G:----------------------------------------------|

D:----------------------------------------------|

A:55--5-55--5-55--5-55--5-00--0-00--0-00--0-00--| x6

E:----------------------------------------------|

Chorus

G:-------------------------------------------------------------|

D:-------------------------------------------------------------|

A:5555555555555555555555555555555552222222222222222222222222222|

E"-------------------------------------------------------------|

G:-------------------------------------------------------------|

D:-------------------------------------------------------------|

A:000000000000000000000000000000000----------------------------|

E:---------------------------------3333333333333333333333333333|

Verse 2 (Comes In w/ Percussion)

G:----------------------------------------------|

D:----------------------------------------------|

A:22--2-22--2-22--2-22--4-----------------------|

E:-----------------------33--3-33--3-33--3-33--3|

G:----------------------------------------------|

D:----------------------------------------------|

A:22--2-22--2-22--2-22--4-----------------------|

E:-----------------------33--3-33--3-33~--------|

G:----------------------------------------------|

D:----------------------------------------------|

A:55--5-55--5-55--5-55--5-00--0-00--0-00--0-00--| x4

E:----------------------------------------------|

Chorus

G:-------------------------------------------------------------|

D:-------------------------------------------------------------|

A:5555555555555555555555555555555552222222222222222222222222222|

E"-------------------------------------------------------------|

G:-------------------------------------------------------------|

D:-------------------------------------------------------------|

A:000000000000000000000000000000000----------------------------|

E:---------------------------------3333333333333333333333333333|

Bridge

G:---------------------------------| |--------------|

D:---------------------------------| |--------------|

A:22222222----------------000000000|x6 |-------0(hold)|

E:--------2222222233333333---------| |--------------|

G:-------------------|

D:-------------------|

A:-------------------|

E:----0~(8 counts)---|

Chorus

G:-------------------------------------------------------------|

D:-------------------------------------------------------------|

A:5555555555555555555555555555555552222222222222222222222222222|

E"-------------------------------------------------------------|

G:-------------------------------------------------------------|

D:-------------------------------------------------------------| x2

A:000000000000000000000000000000000----------------------------|

E:---------------------------------3333333333333333333333333333|

G:-----------|

D:-----------|

A:----2~-----|

E:-----------|

Tabs (if correct) are property of AFI's (A Fire Inside) Hunter Burgan for educational use only.

Get this song at:  amazon.com sheetmusicplus.com

Share your thoughts

0 Comments found