Afi

Afi - Take The Test guitar tab

-------------------------------------------------------------------------------

TAKE THE TEST - AFI

-------------------------------------------------------------------------------

Verse:

e-|---------------------------------|

B-|---------------------------------|

G-|---------------------------------|

D-|-----------------5-5-5-5-3-3-3-3-|

A-|-5-5-5-5-5-5-5-5-3-3-3-3-1-1-1-1-|

E-|-3-3-3-3-3-3-3-3-----------------|

Chorus:last four bars of the song you just play the first half of the riff

e-|-----------------------------------------------------------------|

B-|-----------------------------------------------------------------|

G-|-----------------------------------------------------------------|

D-|---------5-5-5-5-3-3-3-3-----------------5-5-5-5-3-3-3-3-8-8-8-8-|

A-|-5-5-5-5-3-3-3-3-1-1-1-1-3-3-3-3-5-5-5-5-3-3-3-3-1-1-1-1-6-6-6-6-|

E-|-3-3-3-3-----------------1-1-1-1-3-3-3-3-------------------------|

Bridge:palm muted

e-|-----------------------------------------------------------------

B-|-----------------------------------------------------------------

G-|-----------------------------------------------------------------

D-|---------------------------------8-8-8-8-8-8-8-8-5-5-5-5-5-5-5-5-

A-|-5-5-5-5-5-5-5-5-8-8-8-8-8-8-8-8-6-6-6-6-6-6-6-6-3-3-3-3-3-3-3-3-

E-|-3-3-3-3-3-3-3-3-6-6-6-6-6-6-6-6---------------------------------

e-|-------------------------------------------------------------------------|

B-|-------------------------------------------------------------------------|

G-|-------------------------------------------------------------------------|

D-|---------------------------------8-8-8-8-8-8-8-8-10-10-10-10-10-10-10-10-|

A-|-5-5-5-5-5-5-5-5-8-8-8-8-8-8-8-8-6-6-6-6-6-6-6-6--8--8--8--8--8--8--8--8-|

E-|-3-3-3-3-3-3-3-3-6-6-6-6-6-6-6-6-----------------------------------------|

-------------------------------------------------------------------------------

Get this song at:  amazon.com sheetmusicplus.com

Share your thoughts

0 Comments found