Afi

Afi - Values Here guitar tab

ok so i tabbed this out planning to submit it to the dag nasty tabs, but i soon found

out that UG doesnt have dag nasty in their database. so i figured i could just put it

here since afi covered it

Values Here

Standard tuning

Intro

E|---------------|--|--------------------------

B|---------------|--|--------------------------

G|-12-12-10/14--|-X|-7-7-5--3-------15--17--

D|---------------|-2|-------------5--5---------

A|-10-10-8/-12--|--|-5-5-3--1-------13--15--

E|---------------|--|-------------3--3---------

main riff (palm mute for verse)

E|------------------------------

B|------------------------------

G|-----888---------333---5------

D|-5---888--8---3--333---5------

A|-5---666--8---3--111---3------

E|-3--------6---1---------------

right before verse, guitar 1 (or 2, whatever)

E|-----------

B|-----------

G|---12------

D|----------- play alot

A|---10------

E|-----------

Chorus

"fear of failure..."

E|---------------------------------

B|---------------------------------

G|-7-777--5------------33---55------

D|-7-777--5-7-7777777--33-3-55-55---

A|-5-555--3-7-7777777--11-3-33-55---

E|----------5-5555555-----1----33---

"fear of reprimand..."

E|--------------------------------

B|--------------------------------

G|-7-777--5------------33-----5----

D|-7-777--5-7-7777777--33-33--5----

A|-5-555--3-7-7777777--11-33--3----

E|----------5-5555555-----11-------

"two big problems i never had.."

E|----------------------------------

B|----------------------------------

G|-7-777--5------------33---55------

D|-7-777--5-7-7777777--33-3-55-55---

A|-5-555--3-7-7777777--11-3-33-55---

E|----------5-5555555-----1----33---

"i never doubted..."

E|----------------------------------------------

B|----------------------------------------------

G|-7-777--5-9-9999999--33-55--------------------

D|-7-777--5-9-9999999--33-55-5555555555555555---

A|-5-555--3-7-7777777--11-33-5555555555555555---

E|---------------------------3333333333333333---

main riff and right before verse thing

verse

chorus

interlude

E|---------------|--|--------------------------

B|---------------|--|--------------------------

G|-12-12-10/14--|-X|-7-7-5--3-------15--17--

D|---------------|-2|-------------5--5---------

A|-10-10-8/-12--|--|-5-5-3--1-------13--15--

E|---------------|--|-------------3--3---------

then

E|------------------

B|------------------

G|-7-----------12---

D|---play alot------

A|-5-----------10---

E|------------------

chorus then cut to

"what we had insiiiiiiiiiiiiiiiiiiiiiiiide"

E|------------------------------------------------------------

B|------------------------------------------------------------

G|-33-55-----------33-55-----------33-55-----------33-55------

D|-33-55-55555555--33-55-55555555--33-55-55555555--33-55---5--

A|-11-33-55555555--11-33-55555555--11-33-55555555--11-33---5--

E|-------33333333--------33333333--------33333333----------3--

Get this song at:  amazon.com sheetmusicplus.com

Share your thoughts

0 Comments found