Afi

Afi - This Celluloid Dream guitar tab

The Celluloid Dream (barred version)

By AFI

Tabbed by Squale (Squale074@aol.com)-feel free to send any comments, questions, etc.

Intro

E----------------------------------------------------------------

B-2----2--x---x--2---2---1---1---2---2�-x--x--2---2---1---1------

G-3----3--x---x--3---3---1---1---3---3--x--x--3---3---1---1------

D----------�---------------------4---4�-------4---4--------------

A----------------------------------------------------------------

E----------------------------------------------------------------

E----------------------------------------------------------------

B-2----2--x---x--2---2---1--1--2--2--2--2--2--4--4--1--1--1--1--1

G-3----3--x---x--3---3---1--1--3--3--3--3--3--3--3--1--1--1--1--1

D----------------------------------------------------------------

A----------------------------------------------------------------

E----------------------------------------------------------------

Intro Part 2: 4x (2x by itself, then 2x with riff A on top)

E-1----1---1---1---4----4----2----2---2---2---4---4---------------

B-2----2---2---2---6----4----2----2---2---2---6---4---------------

G-3----3---3---3---6----5----3----3---3---3---6---5---------------

D-3----3---3---3---6----6----4----4---4---4---6---6---------------

A-1----1---1---1---4----6----4----4---4---4---4---6---------------

E-----------------------4----2----2---2---2-------4---------------

Riff A:2x (overdubbed)

E-----------------------------------------------------------------

B-----------------------------------------------------------------

G-3---3--3--3--3-�11-11-10--3--3--3--3--3--6--8--5----------------

D-x---x--x--x--x--x--x--x---x--x--x--x--x--x--x--x----------------

A-1---1--1--1--1--9--9--8---1--1--1--1--1--4--6--3----------------

E-----------------------------------------------------------------

E-----------------------------------------------------------------

B-----------------------------------------------------------------

G-3---3--3--3�-3--11-11-10--13--11--10--10--6---------------------

D-x---x--x--x--x--x--x--x---x---x---x---x---x---------------------

A-1---1--1--1--1--9--9--8---11--9---8---8---4---------------------

E-----------------------------------------------------------------

Verse: 2x (once by itself, once with riff B on top)

Counting tears from deep inside��

E-1--1--1--1--1----4--4-4---2--2--2--2--2----4--4-4-4-------------

B-2--2--2--2--2----6--6-6---2--2--2--2--2----4--4-4-6-------------

G-3--3--3--3--3----6--6-6---3--3--3--3--3----5--5-5-6-

Get this song at:  amazon.com sheetmusicplus.com

Share your thoughts

0 Comments found