Afi

Afi - Two Of A Kind bass tab

-------------------------------------------------------------------------------

TWO OF A KIND - A.F.I.

-------------------------------------------------------------------------------

By: Paul Mlot(paulmlot@hotmail.com)

Intro

G|----12-14-17-14------------------|

D|-12------------------------------|

A|----------------5-5-5-5----------|

E|-------------------------3-3-3-3-|

Verse 2x

G|-------------------------------------------------------------------------|

D|-----------------------------------------------------------------3-3-3-3-|

A|-5-5-5-5---------5-5-5-5-----------------5-5-5-5-------------------------|

E|---------3-3-3-3---------5-5-5-5-6-6-6-6---------3-3-3-3-6-6-6-6---------|

Chorus

G|-------------------------------------------------------------------------|

D|-----------------3-3-3-3-----------------------------3-3-3-3-------------|

A|-5-5-5-5-----------------------3-3-3-5-5-5-5-----------------6-6-6-5-5-5-|

E|---------3-3-3-3---------6-6-6---------------3-3-3-3---------------------|

repeat Verse 2x

repeat Chorus 3x

Outro

G|-------------------------------------------------------------------|

D|-----------------3-3-3-3-5-8-5-------5-------------------3-3-3-3-5-|

A|-5-5-5-5-----------------------8-5-8---8-5-5-5-5-------------------|

E|---------6-6-6-6---------------------------------6-6-6-6-----------|

===============================================================================

Get this song at:  amazon.com sheetmusicplus.com

Share your thoughts

0 Comments found