Afi

Afi - Death Of Seasons bass tab

G--------------------------------------------------------------------------

D--12-14---15-14---14-12-10-12-----9-10---12-10--10-9----------------------

A-0------0-------0-------------0-0------0-------0-----0-10---0------------- 3x

E--------------------------------------------------------------------------

G--------------------------------------------------------------------------

D--12-14---15-14---14-12-10-12-----9-10---12-10-9--10(let ring)------------

A-0------0-------0-------------0-0------0-----------0---------------------- 1x

E--------------------------------------------------------------------------

G--------------------------------------------------------------------------

D--------------------------------------------------------------------------

A---------------------------------------------55555------------------------ 2x

E-55555-55555-55555--11111--33333-33333-33333----------(5)

Get this song at:  amazon.com sheetmusicplus.com

Share your thoughts

0 Comments found