Afi

Afi - Holloween bass tab

This tab is almost 100% right. I’m pretty sure

Its tuned in standard E, A, D, G, and goes a little something like this. (I the messterbasser

tabbed this tab)

/ = slide

Intro

Bonfires burning bright….

G]-----------------------------------------------------------------------------------

D]-----------------------------------------------------------------------------------

A]------------------------55555555---------------------------------------------------

E]----/7777777777--------------------33333----55555-----------------------------

Second part of the intro

Dead cats hanging from poles…

G]-----------------------------------------------------------------------------------

D]-----------------------------------------------------------------------------------

A]--22222222-------5555555555-------------------------------222222222----------------

E]------------------------------------------33333----55555---------------------------

Fun part

G]-----------------------------------------------------------------------------------

D]----------------/99999999999999999999----------------------------------------------

A]------------------------ ----------------------------------------------------------

E]-----------------------------------------------------------------------------------

Brown leafed vertigo…

G]-----------------------------------------------------------------------------------

D]-----------------------------------------------------------------------------------

A]----/2222222222----------55555555--------------------------------------------------

E]---- -----------------------------------------33333----55555-----------------------

This day anything goes….

G]-----------------------------------------------------------------------------------

D]-----------------------------------------------------------------------------------

A]--22222222-------5555555555-------------------------------222222222---------

E]------------------------------------------33333----55555--------------------------

Those are tens and you have to play them more. Listen to the song.

G]-----------------------------------------------------------------------------------

D]-- -/99999999999999999999----------------------------------------------------

A]------------------------ --------------9999-10101010-9999-10101010---------

E]------------------------------------------------------------------------------------

G]-----------------------------------------------------------------------------------

D]----------------------------------------------/9999999999999999----------------

A]------222222222222222----------------- ----------------------------------------

E]------------------------------------------------------------------------------------

G]-----------------------------------------------------------------------------------

D]-- --------------------------------------------------------------------------------

A]------9999-10101010-9999-10101010------------------------------------------

E]-----------------------------------------------------------------------------------

G]-----------------------------------------------------------------------------------

D]-------------------0---------------------------------------------------------------

A]---------9----7--------------------------------------------------------------------

E]-----------------------9-----------------------------------------------------------

I wouldn’t count how many 2’s are there just listen to the song I’m not sure about that

last part but it sounds good

G]-----------------------------------------------------------------------------------

D]--------------------------------------------------------00---------

A]------2222222-0000000--2222222--0000000---------99--77-----------------------

E]------------------------------------------------------------99---------------------

Candy apples and razor blades..

G]----------------------------------------------------------------------------------

D]-----------------------------------------------------------------------------------

A]------------------------55555555---------------------------------------------------

E]----/7777777777--------------------33333----55555-----------------------------

This day anything goes….

G]-----------------------------------------------------------------------------------

D]-----------------------------------------------------------------------------------

A]--22222222-------5555555555---------------------------------------------------

E]------------------------------------------33333----55555--------------------------

G]----------------------------------------------------------------------------------D]----/2222222 -------0000000-----2222222-------000000---------------------

A]------------------------ ---------------------------------------------------------

E]-----------------------------------------------------------------------------------

G]-----------------------------------------------------------------------------------

D]----/2222222 -------0000000-----2222222-------000000--------------00-----

A]------------------------ --------------------------------------------99---77-------

E]--------------------------------------------------------------------------------9-

G]-----------------------------------------------------------------------------------

D]----/2222222 -------0000000-----2222222-------000000---------------------

A]------------------------ ----------------------------------------------------------

E]-----------------------------------------------------------------------------------

Then just end with this but you just have to listen to

the song

Taken from The BassMasta -- http://www.tabs-database.com

Get this song at:  amazon.com sheetmusicplus.com

Share your thoughts

0 Comments found