Afi

Afi - The Mother In Me Bass guitar tab

THE MOHTER IN ME

tabbed by teenager from mars

this song is all 16th notes!

intro guitar first

g|------------------------------------------|

a|---777--777-------------------------------|

d|------------------------/7----------------|

e|-55---55---5555555555555------------------|

verse

g|------------------------------------------|x4

a|------------------------------------------|

d|--57777775777777---55---------------------|

e|----------------888--777------------------|

Chorus

16th notes!

g|-----------------------/9\\9-------------------------975--------|x as many times necessary

a|-------------------------------------------------------75------|

d|-77777777------------------7777777-----------------------757---|

e|---------8888888-555555-----------888888-555555----------------|

Outro part1 x4

g|-------------------|

a|-------------------|

d|--7777777----------|

e|---------8888-5555-|

Part 2 part 3

g|---97-----------------|-------7---9---|

a|-----109107--7--------|---7--7---9----|

d|--------------1010-97-|--7------------|

e|----------------------|---------------|

if you have any questions please contact me at webmaster at tabs-database.com.com

Added by tabs-database.com and our distinguished partners

Get this song at:  amazon.com sheetmusicplus.com

Share your thoughts

0 Comments found