Afi

Afi - The Boy Who Destroyed The World guitar tab

Tabbed by: Seany D

INTRO:

E|--------------------------------------------------------|

B|--------------------------------------------------------|

G|------------------------------7777----------------------|

D|--9-7-9-9-9-10-12-12-55555555-7777-7-7-7----------------|

A|--9-7-9-9—9-10-12-12-55555555-5555-7-7-7----------------|

E|--7-5-7-7-7-8-10-10--33333333------5-5-5----------------|

E|--------------------------------------------------------|

B|----------------------8888-10101010---------------------|

G|----------------------xxxx-x-x-x-x---9h11p9h11-14-16b17-|

D|--9-7-9-9-9-10-12-12--5555-7-7-7-7----------------------|

A|--9-7-9-9—9-10-12-12------------------------------------|

E|--7-5-7-7-7-8-10-10-------------------------------------|

Verse 1:

|----2-3-------------2-3---------------2-3-------------2-3-2-5------2-3--------|

|-3--3-3--8-------3--3-3--8---------3--3-3--8-------3--3-3-3-3---3--3-3--8-----|

|-4--2-2--7---7---4--2-2--7---7-6---4--2-2--7---7---4--2-2-2-2---4--2-2--7---7-|

|-4-------5---7---4-------5---7-7---4-------5---7---4------------4-------5---7-|

|-2-----------5---2-----------5-7---2-----------5---2------------2-----------5-|

|-------------------------------5----------------------------------------------|

|----2-3---------------2-3--------------------------2-------|

|-3--3-3--8---------3--3-3--8---------------------3---3---3-|

|-4--2-2--7---7-6---4--2-2--7---7---9-----------4-------4---|

|-4-------5---7-7---4-------5---7---9---4-----4-------------|

|-2-----------5-7---2-----------5---7---4---2---------------|

|---------------5-------------------7---2-------------------|

Chorus 1:

E|--------------------------------------------------------|

B|--------------------------------------------------------|

G|------------------------------7777----------------------|

D|--9-7-9-9-9-10-12-12-55555555-7777-7-7-7----------------|

A|--9-7-9-9—9-10-12-12-55555555-5555-7-7-7----------------|

E|--7-5-7-7-7-8-10-10--33333333------5-5-5----------------|

E|--------------------------------------------------------|

B|------------------------------------------8--10--7--5---|

G|------------------------------7777--------x--x---x--x---|

D|--9-7-9-9-9-10-12-12-55555555-7777-7-7-7--5--7---4--2---|

A|--9-7-9-9—9-10-12-12-55555555-5555-7-7-7----------------|

E|--7-5-7-7-7-8-10-10--33333333------5-5-5----------------|

|----|

|-5--|

|-X--|

|-2--|

|----|

|----|

Verse 2: Same as Verse 1

Chorus1:

Bridge: Mostly palm muted

|------------------------------------------------------------------------------|

|------------------------------------------------------------------------------|

|------------------------------------------------------------------------------|

|------------------------------------------------------------------------------|

|-7---10--9--10--7---7---10--9--10--7---7---7h9--9h10--9--7---7---7h9--9h10-12-|

|-0---0---0--0---0---0---0---0--0---0---0---0----0-----0--0---0---0----0----0--|

|-------------------------------------------------------------------------------|

|-------------------------------------------------------------------------------|

|-------------------------------------------------12-12\11----------------------|

|-----12-----------------------9------------------X--X--X-----------------------|

|-10------7---7h9--9h10-9h10p9-12--7---7h9--9h10--10-10\9---7---9--10--9--7---7-|

|-0---0---0---0----0----0------0---0---0----0---------------0---0--0---0--0---0-|

|----------------------------------------------------------|

|----------------------------------------------------------|

|----------------------------------------------------------|

|-----------------12-----------------------------------14--|

|-9--9h10-12--10------7---9--10--9--7---7---7h9--9h10--12--|

|-0--0----0---0---0---0---0--0---0--0---0---0----0-----0---|

Outro: Repeat 4 times

|-----------------------------------------|

|----------------------------------(5)----|

|-------------------------------(5)----7--|

|----------------------------(5)-------7--|

|-5h7--8--7---5h7--9--10--(5)----------5--|

|-0----0--0---0----0--0----------------5--|

Ends with this:

|-------------------|

|--------------(5)--|

|-9---------(5)-----|

|-9------(5)--------|

|-7---(5)-----------|

|-7-----------------|

Get this song at:  amazon.com sheetmusicplus.com

Share your thoughts

0 Comments found