Afi

Afi - The Prayer Position bass tab

INTRO

G------------------------------------------------------------------------------

D------------------------------------------------------------------------------

A------------------------------------------------------------------------------

E-----------12-A-BUNCH-OF-TIMES-THEN-0-XXXX------------------------------------

VERSE THERES A BUNCHA MUTES IN HERE YOU CAN GET EM

G------------------------------------------------------------------------------

D------------------------------------------------------------------------------

A------------------------------------------------------------------------------

E-0-0-0-0-0-0-3-3-3-3--5-5-5-5-------------------------------------------------

CHORUS

G------------------------------------------------------------------------------

D---------------0-2-1-0-2-1-0-2-x1-0-2-x1--------------------------------------

A--------------------------------------------3-3-3-3-------------0-0-0-0-0-0---

E-0-------X0-----------------------------------------3-3-3-3-3-----------------

BREAK DOWN

D------------------------------------------------------------------------------

G------------------------------------------------------------------------------

A------------------------------------------------------------------------------

E-0-4-2-3-2-0------------------------------------------------------------------

OUTRO

G------------------------------------------------------------------------------

D------------------------------------------------------------------------------

E------------------------------------------------------------------------------

A-0-0-0--3--3-0-0-0------------------------------------------------------------

INTRO

VERSEx2

CHORUS

VERSEx2

CORUS

BREAKDOWN x4 OR SUMTHIN

cHORUS

OUTRO

Get this song at:  amazon.com sheetmusicplus.com

Share your thoughts

0 Comments found