Afi

Afi - Cereal wars guitar tab

-------------------------------------------------------------------------------

CEREAL WARS - AFI

-------------------------------------------------------------------------------

By:Rudy De Stefano/Punker1028@aol.com

Intro: 0:00 (4x)

Let Ring

e|--------|

B|--------|

G|--5-----|

D|--5--5--|

A|--3--5--|

E|-----3--|

Verse: 0:19 (4x)

e|----------------------------------|

B|----------------------------------|

G|-----9-----10-10-10--------99999--|

D|--9--9--9--10-10-10--7--9--99999--|

A|--9--7--9-- 8- 8- 8--7--9--77777--|

E|--7-----7------------5--7---------|

Chorus: 0:33 (2x)

e|---------------------------|

B|---------------------------|

G|--------------------7/9\7--|

D|--------------------7/9\7--|

A|--9999\7/999--9999--5/7\5--|

E|--7777\5/777--7777---------|

e|------------------------|

B|------------------------|

G|--------------55555555--|

D|--9999\7/999--55555555--|

A|--9999\7/999--33333333--|

E|--7777\5/777------------|

End Chorus: 0:45 (3x)

Last Time Play Last Chord A Lot

e|----------------|

B|----------------|

G|-----9-----999--|

D|--9--9--9--999--|

A|--9--7--9--777--|

E|--7-----7-------|

Intro: 0:50 (4x)

Chorus: 1:01 (2x)

End On B

(That's It!)

===============================================================================

Get this song at:  amazon.com sheetmusicplus.com

Share your thoughts

0 Comments found