Afi

Afi - The Nephilim bass tab

AFI-the nephilim

Tabber-kenny

Email-frankencow150@aol.com

>=play a lot

/ or \=slide up or slide down

PLEASE RATE THIS TAB!

Intro

G---------------------------------------------------------------------

D---------------------------------------------------------------------

A---7-8-7—7>--8-10-----7-8-7—7>--7-5-----7-8-7—7>--8-10—5>-7>---------

E-0------------------0----------------0------------------------3-3----

G----------------------------------------------------------------------------

D----------------------------------------------------------------------------

A-----7-8-7—7>--8-10-------7-8-7---7>--7-5-------7-8-7—7>--5-7------12>--9>--

E--0-------------------0----------------------0------------------------------

Verse:Play twice but on 2nd time go back and forth between “3>” and “5>”.

G----------------------------------------------------------------------------

D----------------------------------------------------------------------------

A---3-0------------3-0------------3-0----------3>-5>----------9>--7-5-4-3-2--

E-5-----3-------5--------------5-------3-------------------------------------

Chorus

G------------------------------------------------------------------------------

D------------------------------------------------------------------------------

A—5>-7>---0-0-2—0-0-2 –0-0-2—0-0-2---5>/12>-0-0-2—0-0-2—0-0-2---0>--5>-7>-9>---

E------------------------------------------------------------------------------

Play nothing during the break that’s after the 2nd chorus.

After break play the intro then this…

G------------------

D------------------

A—5>-7>-9>---------

E------------------ After this play chorus.

Get this song at:  amazon.com sheetmusicplus.com

Share your thoughts

0 Comments found