Afi

Afi - This Time Imperfect guitar tab

Verse 1: "Asphyxiate on words I would say..."

-----------------------|-------------------|-----3---7--------7-----------

-----------------------|-------------------|-------5---5--7----7----------

-----------------------|-------------------|----------------9---9---------

-----0-5-5------5-5----|----5-5-4-----5----|------------------------------

----2-2-2--2---2-2-22--|---2-2----2-2--7---|------------------------------

---3--------3-2------2-|--0----------0-----|---0--------------------------

"I'm drawn to a blackened sky as I turn blue..."

--------5-------------------------7---------------------------------------

---5------5---5-/-7-7-7-7-7-7-7---8---------------------------------------

-----5------5-5-/-7-7-7-7-7-7-7---9---------------------------------------

----------------------------------9---------------------------------------

----------------------------------7---------------------------------------

----------------------------------7---------------------------------------

chorus on this chord -^-

Chorus:

----7---10----5--3--|--7---5--3---|---------------------------------------

----8---12----7--5--|--8---7--5---|-----9-----10--------------------------

----9---12----7--5--|--9---7--5---|----8-8--11--11---12-------------------

----9---12----7--5--|--9---7--3---|---0----0------0--0--------------------

----7---10----5--3--|--7---5--3---|---------------------------------------

----7---10----5--3--|--7---5--3---|---------------------------------------

1st Ending

after Chorus 1, before Verse 2

---------------------10---------7---7------------------------3------------

-----8---8---7---7---------10p8----------8---8---7---7---5-----5----------

-------0---0---0---0----0---------0---0----0---0---0---0---------0--------

--------------------------------------------------------------------------

--------------------------------------------------------------------------

--------------------------------------------------------------------------

Verse 2: not to sure if correct

"I cannot leave here, I cannot stay..."

--7------7----8---8----7-------------7-----7-----5-----5------------------

----8-----8-----8---8-----10-------8-----8-----7-----7---7h8--5-5-5-5-----

-------0-------------------------0-----0-----0-----0-----0----0-----------

--------------------------------------------------------------------------

--------------------------------------------------------------------------

--------------------------------------------------------------------------

"Imagined heart, I dissapear..."

--7-----7-----8-----8-----10-----10-----8---8-7---7-----------------------

----8-----8-----8-----8------8------8-----8-----8-------------------------

------0-----0-----0-----0------0------0-----------------------------------

--------------------------------------------------------------------------

--------------------------------------------------------------------------

--------------------------------------------------------------------------

"Seems... no one will appear here and make me real"

-5------5-------------------------7---------------------------------------

---5------5---5-/-7-7-7-7-7-7-7---8---------------------------------------

-----5------5-5-/-7-7-7-7-7-7-7---9---------------------------------------

----------------------------------9---------------------------------------

----------------------------------7---------------------------------------

----------------------------------7---------------------------------------

Fade in distortion...

REPEAT CHORUS

"I'd tell you how it haunts me..."

--------------------------------------------------------------------------

--------------------------------------------------------------------------

--------------------------------------------------------------------------

-----0-5-5------5-5--------5-5--------------------------------------------

----2-2-2--2---2-2-22-----2-2-22------------------------------------------

---3--------3-2------2---0------0-----------------------------------------

build-up to final Chorus

--------------------------------------------------------------------------

--------------------------------------------------------------------------

--0-0-0-0-0-0-0-0-0-0-0-0-0-----------------------------------------------

--4-4-4-4-5-5-5-7-7-7-9-9-9---9-9-9-9-11-11-11-11-12-12-12-12-14-14-14-14-

------------------------------7-7-7-7-9--9--9--9--10-10-10-10-12-12-12-12-

------------------------------0-0-0-0-0--0--0--0--0--0--0--0--0--0--0--0--

REPEAT CHORUS

"Just how much..."

play this twice but dont play last four the first time around

--------------------------------------------------------------------------

--------------------------------------------------------------------------

--------------------------------------------------------------------------

-----0-5-5------5-5--------5-5-4-----2-2-2--2---2-2-22-----2-2---------------------------------------------

---3--------3-2------2---0------------------------------------------------

Get this song at:  amazon.com sheetmusicplus.com

Share your thoughts

0 Comments found