Afi

Afi - Who Knew bass tab

Artist: AFI

Song: Who Knew?

Album: Black Sails EP

Bassist: Hunter

Tuning: Standard

Tabbed by: Spidey255

Intro

G|------------------------------------------------------------|

D|------------------------------------------------------------|

A|-2-2-2222-5-5-2-2-0--------------------5-5-----2-0-2-5-2222-|

E|--------------------3333-2-2-3333-5555-----5555-------------|

G|------------------------------------------------------------|

D|------------------------------------------------------------|

A|-2-2-2222-5-5-2-2-0---------------5555---5-7----------------|

E|--------------------3333-2-2-3333------5-----7~-[Big Slide]-|

Verse

G|----------------------------------------|

D|-----------------------4444-55-4444-55--|

A|-7-7-77777777-7-7-7777------------------|

E|----------------------------------------|

G|----------------------------------------------|

D|----------------------------------------------|

A|-7-7-77777777-77------------------------------|

E|-----------------7-7-7777777-5555555555555555-|

Distorted Verse

G|--------------------------------------------------|

D|-2222-4-5-4-2---------------4h5-4-5-4------77-5-4-|

A|--------------2222222-4-555-----------------------|

E|--------------------------------------5555--------|

G|-------------------------------------------|

D|-2222-4-5-4-2------------------------------|

A|--------------2222222-4--------------------|

E|-------------------------55555555-22222222-|

Chorus eternal

G|--------------|-----------|

D|--------------|-----------|

A|-2222-----5---|-5555------|

E|------3-3---5-|------5555-|

-distorted verse 2x

-chorus

Bridge

G|------------------11-14-9--|-----------------------------------------|

D|------------------11-14-10-|-----------------------------------------|

A|-----------5---------------|-2222-0-22------5---5-2222-0-22-55555555-|

E|-7-5-6-7---5-7----------|-----------3333---5----------------------|

G|-----------------------------------------|

D|------------5555---4-5-7777777777777777-|

A|-2222-0-2-5------5-----------------------|

E|-----------------------------------------|

-distorted verse

-chorus

Ending

G|-----------|

D|-----------|

A|-----------|

E|-7~-5-6-7-|

Taken from The BassMasta -- http://www.tabs-database.com

Get this song at:  amazon.com sheetmusicplus.com

Share your thoughts

0 Comments found