Afi

Afi - Strength Through Wounding bass tab

-------------------------------------------------------------------------------

STRENGTH THROUGH WOUNDING - AFI

-------------------------------------------------------------------------------

The intro 24x

G]----------------------------------------

D]----------------------------------------

A]-----8---7---5--------------------------

E]----------------5-----------------------

through our bleeding part.

G]----------------------------------------

D]----------------------------------------

A]---------7---------7----------5---------

E]----------------------------------------

Through our bleeding we are one, Then you hit 7.. Listen to the song

The out-tro

G]----------------------------------------

D]----------------------------------------

A]--------8----7-----5--------------------

E]----------------------------------------

-------------------------------------------------------------------------------

Taken from The BassMasta -- http://www.tabs-database.com

Get this song at:  amazon.com sheetmusicplus.com

Share your thoughts

0 Comments found