Afi

Afi - Who Said You Could Touch Me Anyway Bass guitar tab

AFI-Who Said You Could Touch Me?

Intro/Verse/Bridge

G------------------------------------------------|

D------------------------------------------------|

A--7-7-7-5-7-7-7-7-7-5-3-3-3-3-------------------|

E------------------------------------------------|

Chorus

G-------------------------------------------------------------------|

D-------------------------------------------------------------------|

A-7-7-7-7-----------------10-9-7-7-7-7------------------------------| x2

E---------7-7-7-7-8-8-8-8--------------7-7-7-7-8-8-8-8-10-10-10-10--|

In the last chorus only hit the last ten once. This is the rest when davey counts to 8.

Outro

Do the Verse Riff until the very end, then you do this.

G------------------------------------------|

D------------------------------------------|

A-7-7-7-5-7-7-7-5-7-7-7-5/19-19-19-17-19---|

E------------------------------------------|

I'm pretty sure this is rather accurate, if you have questions/comments/corrections

me at webmaster at tabs-database.com.comAdded by tabs-database.com and our distinguished partners

Get this song at:  amazon.com sheetmusicplus.com

Share your thoughts

0 Comments found