Afi

Afi - Synesthesia bass tab

Artist: AFI

Song: Synesthesia

Album: Sing The Sorrow (UK)

Bassist: Hunter

Tuning: Half a Step Down

Intro

G|----|--------|

D|----|--------|

A|----|----/7>-|

E|-0>-|-0>/----|

Verse

G|----|---------|------------|-------------------|

D|----|---------|------------|-------------------|

A|----|-7-7-7-7-|-----7----7-|-77-99-10-10-12-14-|

E|-0>-|---------|-0000-0000--|-------------------|

G|----------------------------------------|

D|-----------------------------------/14--|

A|-7775-3334-5553-2225-7775-3334-555/-----|

E|----------------------------------------|

G|-------------|

D|-------------|

A|-5555-10-9-5-|2x

E|-------------|

G|----------------------------------------------------------|

D|--------------10-9-7-55555555-4-5-4-0--------------10-9-7-|

A|-777777777777-------------------------777777777777--------|

E|----------------------------------------------------------|

G|------------------------|---------------------|

D|-55555555---------------|---------------------|

A|----------4-55555555-7~-|------2222-5555-7777-|

E|------------------------|-0000----------------|

Chorus

G|---------------------------------------------------|----------------------------|

D|---------------------------------------------------|----------------------------|

A|-7777777-5-33333-2-3-4-55555-4-5-6-3-2-3-4-5-3-5-6-|-------------------/7777777-|

E|---------------------------------------------------|-3333-2222-0000000/---------|

Verse

chorus

Bridge

G|------------|------------------|--------|------------------|

D|------------|---10-------------|---/14~-|-14-12-10-9-------|

A|----7-----7-|-7----10-10-10\55-|-5/-----|------------10-9--|

E|-00---000---|------------------|--------|------------------|

x

G|---------------------------------------------|

D|-------------10-10---------------------------|

A|-------10-12------12-10-10-10-9--------------|

E|-12-12---------------------------10-10-10-11-|

y

G|-----------------------------------------------|

D|-------------10-10-9---------------------------|

A|-------10-12---------12-10-10-10-9-------------|

E|-12-12-----------------------------10-10-10-11-|

z

G|------------------------------------------------|

D|-------------10-10-9---------9-10-12-9-12-13-14-| repeat that 14 when necessary

A|-------10-12--------12-10-10--------------------|

E|-12-12------------------------------------------|

When the distorted guitar comes in keep playing those 2 things up there and play xzyz in that pattern over and over again

then the music pauses and it's just the guitar and then the ending

Ending

G|-----|

D|--\2-|

A|-7\--|

E|-----|

Get this song at:  amazon.com sheetmusicplus.com

Share your thoughts

0 Comments found