Afi

Afi - At A Glance bass tab

-------------------------------------------------------------------------------

AT A GLANCE - AFI

-------------------------------------------------------------------------------

intro:

|-------------12\--|

|--7--10--14-------|

|------------------|

|------------------|

verse:

2nd verse only

|------------------------------------------------------|-------|

|--3-------------3----------------3--------------------|-------|

|----5----1--------5----1---3-------5----1----3--4--5--|-------|

|-----------1-------------1----------------1-----------|--6-5--|

chorus:

|--------------------------------------------------------------------------------|

|----------------------------------------5-3-------------------------------------|

|------3-5-6---5-6-8-------------------------5-6---5-6-7-8---8-6-5----------/10--|

|--3-----------------6---5-6-7-8-----3-----------------------------6--1--3-------|

break:

intro

|------------|----------------------------------7(harmonic)---|

|------------|--------------------------------7(harmonic)-----|

|-----6------|--5---6---5---6---5---6---5---6-----------------|

|--3-----5---|------------------------------------------------|

|--------------------------------------------------------------------------------------------------------------|

|-------------------------------------------------------3-5-3----------------------------5-7-5-----------------|

|--5---6---5---6---5---6----3---------5---6---5---6---5-------6-----3-------3------3-5/7-------7------------5--|

|------------------------/\----3-5-------------------------------/\----3-5-----3-5---------------8---3-5-------|

coda (ending):

repeat for nearly forever very

last note

|-------------------------------------------------------------------|-----------|

|----------------------------------------------------------------3--|---5-------|

|------1-------5-------0---5-3-1-0-----1-------5-------0---5-3-5----|-----------|

|--3-----3-6-----6-1-----1---------3-----3-6-----6-1-----1----------|-----------|

=============================================================================

Get this song at:  amazon.com sheetmusicplus.com

Share your thoughts

0 Comments found