Afi

Afi - Third Season guitar tab

This is for AFI's Song Third Season fairly easy actually

Drop D Tuning-

E|--------------

B|--------------

G|--------------

D|--------------0----8---1----0

A|--------------0----8---1----0 (Repeat Note*LET THESE RING FOR ABOUT 2 SECONDS)

D|--------------0----8---1----0

E|------

B|------

G|------

D|------0X0X0X---8x8x8x---1x0x1x

A|------0x0X0X---8x8x8x---1x0x1x (All Palm Muted)

D|------0x0X0X---8x8x8x---1x0x1x

Next its the kickass bass part

E|----------4--1---3-2---4/2----1--0

B|--------0--0---3----0------0----4-2

G|------

D|----

A|-------

D|----------

Chorus

E|--------

B|--------

G|--------

D|--------0000--8888--1111--00

A|--------0000--8888--1111--00 (Repeat Note*LET LAST NOTE RING For A SECOND or TWO)

D|--------0000--8888--1111--00

Thats Basically the whole song it may need some tweaking but this is what i picked up

Get this song at:  amazon.com sheetmusicplus.com

Share your thoughts

0 Comments found