Afi

Afi - Narrative Of A Soul Against Souls guitar tab

tab by: ISAM

song order; Intro

verse

chorus

verse

chorus x2

solo

chorus x2

outro

I just left the verse in power chords but its not that hard to transpose it to barred minors.

intro

e|-------3---10---8---3---5------------------|

B|-------3---10---8---3---5------------------|

G|---2---4---11---8---3---5------------------|

D|---2---5---12--10---5---7---2-x2-----------|

A|---2---5---12--10---5---7---2--------------|

E|---0---3---10---8---3---5---0--------------|

Chorus

e|-------3---10---8---10---12---3---10---8---3---5-------|

B|-------3---10---8---10---12---3---10---8---3---5-------|

G|---2---3---11---8---11---13---3---11---8---3---5-------|

D|---2---5---12--10---12---14---5---12--10---5---7---2---|

A|---2---5---12--10---12---14---5---12--10---5---7---2---|

E|---0---3---10---8---10---12---3---10---8---3---5---0---|

verse:

e|--------------------------------------------|

B|--------------------------------------------|

G|---4--------4--5----------------------------|

D|---4--5--7--4--5--7-------------------------|

A|---2--5--7--2--3--7-------------------------|

E|------3--5--------5-------------------------|

solo:

e|--0-0-0-0-0-0----7-8-7-----------------------------------------------------|

B|--5-7-8-5-7-8----8-8-8--8-10-8---------------------------------------------|

G|------------------------7-7--7---------------------------------------------|

D|---------------------------------------------------------------------------|

A|---------------------------------------------------------------------------|

E|---------------------------------------------------------------------------|

e|--0-0-0-0-0-0----7-10-8----------------------------------------------------|

B|--5-7-8-5-7-8----8-8--8--8-10-8--------------------------------------------|

G|-------------------------7-7--7--------------------------------------------|

D|---------------------------------------------------------------------------|

A|---------------------------------------------------------------------------|

E|---------------------------------------------------------------------------|

outro

e|--0-0-0-0-0-0-0-0-0-------|

B|--5-7-8-5-7-8-5-7-8--10---|

G|----------------------7---|

D|--------------------------|

A|--------------------------|

E|--------------------------|

Get this song at:  amazon.com sheetmusicplus.com

Share your thoughts

0 Comments found