Afi

Afi - Carcinogen Crush guitar tab

AFI - Carcinogen Crush

From Guitar Hero 3

Tabbed by AGiantRobot on 11/12/07

Tuned 1/2 step down

Intro (00:00)

|---------------------------------------| x4

|---------------------------------------|

|-----------7--10--10--10--x-x--5-5-5/--|

|---5/7--7--7--10--10--10--x-x--5-5-5/--|

|---5/7--7--5--8---8---8---x-x--3-3-3/--|

|---3/5--5--5--8---8---8---x-x--3-3-3/--|

Verse (00:12)["Speechless...read the words between your lines..."]

P.M...................................................................

|---------------------------------------------------------------------|

|-----------------------------------8---8---8---8---8---8---8---8-----|

|--9---9---9---9---9---9---9---9--------------------------------------|

|----7---7---7---7---7---7---7---7----10--10--10--10--10--10--10--10--|

|---------------------------------------------------------------------|

|---------------------------------------------------------------------|

["In isolation..."]

P.M...................................(Grad. Release)...........

|---------------------------------------------------------------|

|--------------------------------------8--8--8--8--8--8--8--8---|

|---9---9---9---9---9---9---9---9-------------------------------|

|-----10--10--10--10--10--10--10--10-----9--9--9--9--9--9--9--9-|

|---------------------------------------------------------------|

|---------------------------------------------------------------|

["Heard you speak...words I know you didn't write..."]

|---------------------------------------------------------------------|

|-----------------------------------8---8---8---8---8---8---8---8-----|

|--9---9---9---9---9---9---9---9--------------------------------------|

|----7---7---7---7---7---7---7---7----10--10--10--10--10--10--10--10--|

|---------------------------------------------------------------------|

|---------------------------------------------------------------------|

["..but I believed you, believed them, cause you spoke them again..."]

|---------------------------------------------------------------|

|--------------------------------------8-----8-----8-----8------|

|---9---9---9---9---9---9---9---9-------------------------------|

|-----10--10--10--10--10--10--10--10---9--9--9--9--9--9--9--9---|

|---------------------------------------------------------------|

|---------------------------------------------------------------|

["...in my dreams last night..."]

|-------------------|

|-------------------|

|--9-9-9-9-9-9-9-9--|

|--9-9-9-9-9-9-9-9--|

|--7-7-7-7-7-7-7-7--|

|--7-7-7-7-7-7-7-7--|

CHORUS (00:35)

["I swear to you I'm not the one..."]

|----------------8~------8--7~----|

|--10~------10~-------------------|

|-------9~-----------9~-----------|

|---------------------------------|

|---------------------------------|

|---------------------------------|

|------7~----7--8~~~~~-|

|---8~----5------------|

|----------------------|

|----------------------|

|----------------------|

|----------------------|

["...I swear so I'll become..."]

|-------------------------------------|

|-------------------------------------|

|--------------------5-5-5-5-5-5-5-5--|

|--5-5-5-5-5-5-5-5---5-5-5-5-5-5-5-5--|

|--5-5-5-5-5-5-5-5---3-3-3-3-3-3-3-3--|

|--3-3-3-3-3-3-3-3---3-3-3-3-3-3-3-3--|

["...your only..."]

|------------------------------------------|

|------------------------------------------|

|------------------12-12-12-12--9--9--9--9-|

|-5-5-5-5-5-5-5-5--x--x--x--x---x--x--x--x-|

|-5-5-5-5-5-5-5-5--10-10-10-10--7--7--7--7-|

|-3-3-3-3-3-3-3-3--------------------------|

PLAY VERSE

PLAY CHORUS 2x

Add this riff in between 1st and 2nd chorus repeat:

(01:30)

|--------------|

|--------------|

|----------5-5-|

|------5-5-----|

|--3-3---------|

|--------------|

INTERLUDE (1:35)

[...airs of grace, your airs of grace will fill me..."]

P.M.......................................................................x2

|-------------------------------------------------------------------------|

|-------------------------------------------------------------------------|

|------------5-5-5-5------------5-5-5-5-----------------------------------|

|--3-3-3-3/--5-5-5-5--3-3-3-3/--5-5-5-5---5-5-5-5-5-5-5-5-5-5-5-5-5-5-5-5-|

|--3-3-3-3/--3-3-3-3--3-3-3-3/--3-3-3-3---5-5-5-5-5-5-5-5-5-5-5-5-5-5-5-5-|

|--1-1-1-1/--3-3-3-3--1-1-1-1/--3-3-3-3---3-3-3-3-3-3-3-3-3-3-3-3-3-3-3-3-|

|-------------------------------------------|

|-------------------------------------------|

|--------5-5---------5-5--------------------|

|--3-3---5-5---3-3---5-5---5-5------5-5-----|

|--3-3---3-3---3-3---3-3---5-5------5-5-----|

|--1-1---3-3---1-1---3-3---3-3------3-3-----|

Play twice. 2nd time, play:

|-------------------------|

|-------------------------|

|-13-13-13-13-13-13-13-13-|

|-x--x--x--x--x--x--x--x--|

|-11-11-11-11-11-11-11-11-|

|-------------------------|

(01:58)

|---------------------------------------| x4

|---------------------------------------|

|-----------7--10--10--10--x-x--5-5-5/--|

|---5/7--7--7--10--10--10--x-x--5-5-5/--|

|---5/7--7--5--8---8---8---x-x--3-3-3/--|

|---3/5--5--5--8---8---8---x-x--3-3-3/--|

Over 3rd and 4th time, play:

|---------------------------------------------------|

|---------------------------------------------------|

|----------5-5-7-9~--14-14--16-17--17--19--19---21~-|

|--7-7--9--x-x-x-x---x--x---x--x---x---x---x----x---|

|--x-x--x--3-3-5-7~--12-12--14-15--15--17--17---19~-|

|--5-5--7-------------------------------------------|

(02:12)

["I swear to you I'm not the one..."]

|----------|

|----------|

|----------|

|--7----5~-|

|--7----5~-|

|--5----3~-|

...^

Play chord a lot, P.M'ed.

PLAY CHORUS

PLAY INTRO 4x

And there ya have it! ;)

Added by tabs-database.com and our distinguished partners

Get this song at:  amazon.com sheetmusicplus.com

Share your thoughts

0 Comments found