Afi

Afi - Godness guitar tab

Standard Tuning (EADGBe)

Intro:

e|---------------------------------------------------------------------------|

B|---------------------------------------------------------------------------|

G|------3-----3------------2-----2------------2-----2-----------3-----3------|

D|--5-5---5-5---5-5----3-3---3-3---3-3----0-0---0-0---0-0----1-1--1-1---1-1-0|

A|---------------------------------------------------------------------------|

E|---------------------------------------------------------------------------|

e|---------------------------------------------------------------------------|

B|---------6-----------------------------------------------------------------|

G|-----3-----3------------2-----2------------2-3-2--------------3-----3------|

D|-5-5---5-----5-5----3-3---3-3---3-3----0-3-------3-0-0----1-1---1-1---1-1-0|

A|---------------------------------------------------------------------------|

E|---------------------------------------------------------------------------|

1st Verse:

e|---------------------------------------------------------------------------|

B|---------------------------------------------------------------------------|

G|------3-----3------------2-----2------------2-----2-----------3-----3------|

D|--5-5---5-5---5-5----3-3---3-3---3-3----0-0---0-0---0-0----1-1--1-1---1-1-0|

A|---------------------------------------------------------------------------|

E|---------------------------------------------------------------------------|

e|---------------------------------------------------------------------------|

B|---------6-----------------------------------------------------------------|

G|-----3-----3------------2-----2------------2-3-2--------------3-----3------|

D|-5-5---5-----5-5----3-3---3-3---3-3----0-3-------3-0-0----1-1---1-1---1-1-0|

A|---------------------------------------------------------------------------|

E|---------------------------------------------------------------------------|

e|---------------------------------------------------------------------------|

B|---------------------------------------------------------------------------|

G|---------------------------------------------------------------------------|

D|--5-5-5-5-5-5-5-5--3-3-3-3-3-3-3-3--0-0-0-0-0-0-0-0--1-1-1-1-1-1-1-1-------|

A|--................................pm................................-------|

E|---------------------------------------------------------------------------|

e|---------------------------------------------------------------------------|

B|---------------------------------------------------------------------------|

G|--------------------------------------7-7-7-7-7-7-7----8-8-8-8-8-8---------|

D|--5-5-5-5-5-5-5-5--3-3-3-3-3-3-3-3----7-7-7-7-7-7-7----8-8-8-8-8-8---------|

A|--...............pm...............----5-5-5-5-5-5-5----6-6-6-6-6-6---------|

E|---------------------------------------------------------------------------|

Chorus:

e|----------------------------------------------------------------|

B|----------------------------------------------------------------|

G|----------------------------------------------------------------|

D|--8--8-8-8--8-8--10-10--10-10-10-10--5--5-5-5--5-5--3-3--3-3-3-3|

A|--8--8-8-8--8-8--10-10--10-10-10-10--5--5-5-5--5-5--3-3--3-3-3-3|

E|--6--6-6-6--6-6---8--8---8--8--8--8--3--3-3-3--3-3--1-1--1-1-1-1|

e|---------------------------------------------------------------------|

B|---------------------------------------------------------------------|

G|---------------------------------------------------------------------|

D|--8--8-8-8--8-8--10-10--10-10-10-10--5--5-5-5--5-5--3-3--3-3-3-3---5-|

A|--8--8-8-8--8-8--10-10--10-10-10-10--5--5-5-5--5-5--3-3--3-3-3-3---5-|

E|--6--6-6-6--6-6---8--8---8--8--8--8--3--3-3-3--3-3--1-1--1-1-1-1---3-|

2nd Verse:

e|---------------------------------------------------------------------------|

B|---------------------------------------------------------------------------|

G|------3-----3------------2-----2------------2-----2-----------3-----3------|

D|--5-5---5-5---5-5----3-3---3-3---3-3----0-0---0-0---0-0----1-1--1-1---1-1-0|

A|--...................................pm....................................|

E|---------------------------------------------------------------------------|

e|---------------------------------------------------------------------------|

B|---------6-----------------------------------------------------------------|

G|-----3-----3------------2-----2------------2-3-2--------------3-----3------|

D|-5-5---5-----5-5----3-3---3-3---3-3----0-3-------3-0-0----1-1---1-1---1-1-0|

A|-..pm...-------.........pm..........--------------------........pm.........|

E|---------------------------------------------------------------------------|

e|-----------------------------------------------------------------|

B|-----------------------------------------------------------------|

G|-----------------------------------------------------------------|

D|-8--8--8--8---8--8----7-7-7-7--7-7---7-7-7-7--7-7---8-8-8-8--8-8-|

A|-10-10-10-10--10-10---8-8-8-8--8-8---5-5-5-5--5-5---6-6-6-6--6-6-|

E|-----------------------------------------------------------------|

P.M.*********** ********* ******** ********

e|------------------------------------------------------------------------|

B|------------------------------------------------------------------------|

G|------------------------------------------------------------------------|

D|-8--8--8--8---8--8----7-7-7-7--7-7---7-7-7-7--7-7-7-7---8-8-8-8-8-8-8-8-|

A|-10-10-10-10--10-10---8-8-8-8--8-8---5-5-5-5--5-5-5-5---6-6-6-6-6-6-6-6-|

E|------------------------------------------------------------------------|

P.M.********** ******** ********

Chorus:

e|----------------------------------------------------------------|

B|----------------------------------------------------------------|

G|----------------------------------------------------------------|

D|--8--8-8-8--8-8--10-10--10-10-10-10--5--5-5-5--5-5--3-3--3-3-3-3|

A|--8--8-8-8--8-8--10-10--10-10-10-10--5--5-5-5--5-5--3-3--3-3-3-3|

E|--6--6-6-6--6-6---8--8---8--8--8--8--3--3-3-3--3-3--1-1--1-1-1-1|

e|----------------------------------------------------------------|

B|----------------------------------------------------------------|

G|----------------------------------------------------------------|

D|--8--8-8-8--8-8--10-10--10-10-10-10--5--5-5-5--5-5--3-3--3-3-3-3|

A|--8--8-8-8--8-8--10-10--10-10-10-10--5--5-5-5--5-5--3-3--3-3-3-3|

E|--6--6-6-6--6-6---8--8---8--8--8--8--3--3-3-3--3-3--1-1--1-1-1-1|

e|----------------------------------------------------------------|

B|----------------------------------------------------------------|

G|----------------------------------------------------------------|

D|--8--8-8-8--8-8--10-10--10-10-10-10--5--5-5-5--5-5--3-3--3-3-3-3|

A|--8--8-8-8--8-8--10-10--10-10-10-10--5--5-5-5--5-5--3-3--3-3-3-3|

E|--6--6-6-6--6-6---8--8---8--8--8--8--3--3-3-3--3-3--1-1--1-1-1-1|

e|----------------------------------------------------------------|

B|----------------------------------------------------------------|

G|----------------------------------------------------------------|

D|--8--8-8-8--8-8--10-10--10-10-10-10--5--5-5-5--5-5--3-3--3-3-3-3|

A|--8--8-8-8--8-8--10-10--10-10-10-10--5--5-5-5--5-5--3-3--3-3-3-3|

E|--6--6-6-6--6-6---8--8---8--8--8--8--3--3-3-3--3-3--1-1--1-1-1-1|

Bridge:

Play 4x

e|----------------------------------------------------------------------|

B|----------------------------------------------------------------------|

G|----------------------------------------------------------------------|

D|--12--12-12-12--12-12--10-10--10-10-10-10--7--7-7-7--7-7--8-8--8-8-8-8|

A|--12--12-12-12--12-12--10-10--10-10-10-10--7--7-7-7--7-7--8-8--8-8-8-8|

E|--10--10-10-10--10-10---8--8---8--8--8--8--5--5-5-5--5-5--6-6--6-6-6-6|

e|----------------------------------------------------|

B|----------------------------------------------------|

G|----------------------------------------------------|

D|--5---3-3-3--8---3-3-3--5--5-5-5-5--5-5-5-5--5-5-5-5|

A|--5---3-3-3--8---3-3-3--5--5-5-5-5--5-5-5-5--5-5-5-5|

E|--3---1-1-1--6---1-1-1--3--3-3-3-3--3-3-3-3--3-3-3-3|

P.M. *******

Chourus:

e|----------------------------------------------------------------|

B|----------------------------------------------------------------|

G|----------------------------------------------------------------|

D|--8--8-8-8--8-8--10-10--10-10-10-10--5--5-5-5--5-5--3-3--3-3-3-3|

A|--8--8-8-8--8-8--10-10--10-10-10-10--5--5-5-5--5-5--3-3--3-3-3-3|

E|--6--6-6-6--6-6---8--8---8--8--8--8--3--3-3-3--3-3--1-1--1-1-1-1|

e|----------------------------------------------------------------|

B|----------------------------------------------------------------|

G|----------------------------------------------------------------|

D|--8--8-8-8--8-8--10-10--10-10-10-10--5--5-5-5--5-5--3-3--3-3-3-3|

A|--8--8-8-8--8-8--10-10--10-10-10-10--5--5-5-5--5-5--3-3--3-3-3-3|

E|--6--6-6-6--6-6---8--8---8--8--8--8--3--3-3-3--3-3--1-1--1-1-1-1|

e|----------------------------------------------------------------|

B|----------------------------------------------------------------|

G|----------------------------------------------------------------|

D|--8--8-8-8--8-8--10-10--10-10-10-10--5--5-5-5--5-5--3-3--3-3-3-3|

A|--8--8-8-8--8-8--10-10--10-10-10-10--5--5-5-5--5-5--3-3--3-3-3-3|

E|--6--6-6-6--6-6---8--8---8--8--8--8--3--3-3-3--3-3--1-1--1-1-1-1|

e|----------------------------------------------------------------|

B|----------------------------------------------------------------|

G|----------------------------------------------------------------|

D|--8--8-8-8--8-8--10-10--10-10-10-10--5--5-5-5--5-5--3-3--3-3-3-3|

A|--8--8-8-8--8-8--10-10--10-10-10-10--5--5-5-5--5-5--3-3--3-3-3-3|

E|--6--6-6-6--6-6---8--8---8--8--8--8--3--3-3-3--3-3--1-1--1-1-1-1|

e|--------------------------------------------------------------------------|

B|--------------------------------------------------------------------------|

G|--------------------------------------------------------------------------|

D|-8----3-3-3-3---5---------------------------------------------------------|

A|-8----3-3-3-3---5---------------------------------------------------------|

E|-6----1-1-1-1---3---------------------------------------------------------|

Get this song at:  amazon.com sheetmusicplus.com

Share your thoughts

0 Comments found