Afi

Afi - Cruise Control bass tab

Verse:

G-|-------------------------------2-|

D-|--4-4-33-3-2-0----4-4-44-4---2---|

A-|---------------2-----------4-----|

E-|---------------------------------|

Chorus:

G-|------------------------------------------------------------------|

D-|--4-44-44-3-2-22-22----4-44-44-3-2-22-22----4-44-44-3-2-22-22---4-|

A-|--------------------2--------------------2--------------------2---|

E-|------------------------------------------------------------------|

Bridge:

G-|-------------------------------------------------------------------------------------------------------|

D-|-------------------------------------------------------------------------------------------------------|

A-|0/9-99-99-99-------------------9-99-99-99-------------------9-99-99-99-------------------9-99-99-99-12-|

E-|-------------10-1010-1010-1010------------10-1010-1010-1010------------10-1010-1010-1010---------------|

Get this song at:  amazon.com sheetmusicplus.com

Share your thoughts

0 Comments found