Afi

Afi - Who Said You Could Touch Me Anyway guitar tab

AFI - Who Said You Could Touch Me Anyways

Submitted By: Sqweeky

EMail: Blindside831@aol.com

tabbed by ryanleeper96@hotmail.com

INTRO / VERSE

e-|----------------------------------------------------------------------

B-|----------------------------------------------------------------------

G-|----9-9-9-7--9-9-9-7--9-9-9-7--5-5-5-5--------------------------------

D-|----9-9-9-7--9-9-9-7--9-9-9-7--5-5-5-5--------------------------------

A-|----7-7-7-5--7-7-7-5--7-7-7-5--3-3-3-3--------------------------------

E-|----------------------------------------------------------------------

CHORUS

e-|----------------------------------------------------------------------

B-|----------------------------------------------------------------------

G-|----9-9-9-9----------------------12--11-------------------------------

D-|----9-9-9-9--9-9-9-9--10101010---12--11-------------------------------

A-|----7-7-7-7--9-9-9-9--10101010---10--9--------------------------------

E-|-------------7-7-7-7---8-8-8-8----------------------------------------

e-|----------------------------------------------------------------------

B-|----------------------------------------------------------------------

G-|----9-9-9-9----------------------7-7-7-7

Get this song at:  amazon.com sheetmusicplus.com

Share your thoughts

0 Comments found