Afi

Afi - Miss Murder 100% Correct bass tab

This is a sick song but most of the tabs (especially in the intro)

are wrong.

/ = Slide

> = Play note 8 times

*In intro/chorus, notes are elevens,

in the 2nd verse they are ones.

Intro

G|-----------------------------------------|

D|---6----11----9-----4--------------------|

A|-----------------------------------------|x2

E|-4---4/9----7---2-2----------------------|

Chorus one

G|-----------------------------------------|

D|---6----11----9-----4--------------------|

A|-----------------------------------------|x3

E|-4---4/9----7---2-2----------------------|

G|-----------------------------------------|

D|-----------------------------------------|

A|-----------------------------------------|x1

E|-2>--------------------------------------|

G|-----------------------------------------|

D|---6----11----9-----4--------------------|

A|-----------------------------------------|x2

E|-4---4/9----7---2-2----------------------|

Verse one

G|------------4444-------------------------|

D|------6666-------6666-4>-----------------|

A|-------------------------6>--------------|x2

E|-4444------------------------------------|

Pre-chorus

G|-----------------------------------------|

D|-----------------------------------------|

A|-----------------------------------------|x1

E|-4>>-2>-0> 4>>-2>------------------------|

Chorus two

G|-----------------------------------------|

D|---6----11----9-----4--------------------|

A|-----------------------------------------|x3

E|-4---4/9----7---2-2----------------------|

G|-----------------------------------------|

D|-----------------------------------------|

A|-----------------------------------------|x1

E|-2>--------------------------------------|

Fill

G|-----------4444-6666---------------------|

D|------6666-----------6>-4>---------------|

A|-----------------------------------------|x2

E|-4444------------------------------------|

Verse two

G|-----------------------------------------|

D|-66--------------------------------------|

A|-----------------------------------------|x4

E|-----------------------------------------|

G|-----------------------------------------|

D|-----------------1>----------------------|

A|----2222-4444----------------------------|x1

E|-4>-----------2>-------------------------|

Pre-chorus

G|-----------------------------------------|

D|-----------------------------------------|

A|-----------------------------------------|x1

E|-4>>-2>-0> 4>>-2>------------------------|

Chorus three

G|-----------------------------------------|

D|---6----11----9-----4--------------------|

A|-----------------------------------------|x3

E|-4---4/9----7---2-2----------------------|

G|-----------------------------------------|

D|-----------------------------------------|

A|-----------------------------------------|x1

E|-2>--------------------------------------|

Bridge

G|-----------------------------------------|

D|---------6666-----------66-----6666------|

A|-66-----------6666-4444-------------6666-|x1

E|----4444--------------------4>-----------|

G|-----------------------------------------|

D|------------6666-------------------------|

A|-4444------------6666-4444-----6666------|x1

E|------4444-----------------66-------6666-|

G|-----------------------------------------|

D|-----------66--------6666----------------|

A|-4444---------------------6666-4444------|x1

E|------4444----44444-----------------4444-|

G|-----------------------------------------|

D|-6666------------6666-------------66-----|

A|-----6666-4444-------6666-4444-------4>--|x1

E|---------------44-------------4444-------|

Chorus four

G|-----------------------------------------|

D|---6----11----9-----4--------------------|

A|-----------------------------------------|x3

E|-4---4/9----7---2-2----------------------|

G|-----------------------------------------|

D|-----------------------------------------|

A|-----------------------------------------|x1

E|-2>--------------------------------------|

G|-----------------------------------------|

D|---6----11----9-----4--------------------|

A|-----------------------------------------|x3

E|-4---4/9----7---2-2----------------------|

G|-----------------------------------------|

D|-----------------------------------------|

A|-----------------------------------------|x1

E|-2>--------------------------------------|

End With

G|-----------------------------------------|

D|-----------------------------------------|

A|-66--------------------------------------|x1

E|-----------------------------------------|

Get this song at:  amazon.com sheetmusicplus.com

Share your thoughts

0 Comments found