Afi

Afi - Endlessly She Said bass tab

AFI

Endlessly, She Said

DECEMBERUNDERGROUND (2005)

G|----------------------------------------

D|-8---6-----------------6---8-----8------

A|---8--------8-9------6-------8-8---8-8--

E|---------6---------4--------------------

|----------------------------------------

|-8---6-----------------6---8-----8------

|---8--------8-9------6-------8-8---8-8--

|---------6---------4--------------------

|------------------------------------------

|-8---6-------------------6---8-----8------

|---8--------8-9-8-6----6-------8-8---8-8--

|---------6-----------4--------------------

|------------------------------------------

|-8---6-------------------6---8-----8------

|---8--------8-9-8-6----6-------8-8---8-8--

|---------6-----------4--------------------

Chorus

|------------------------------------------------|

|-------------------------3/8-----8-9-8-6-8-6h8--|

|-----------------------------8-8----------------|

|-4-h6\-----4-h6\----4-h6\------------------------|

|--------------------------------------------------------------|

|-3/6------6\------------------------6---8-----8-----8---------|

|------8-8---------8-8-9\--------8-8---8---8-8---8-8---8-8-----|

|------------4-4h6---------4-4h6---------------------------4-2-|

|----------------------------------------------------------|

|------------------------------------------6---6---6-------|

|--------6h8-6p4-4-44-4-4-4h6-4--------------6---6---------|

|-6-66-6------------------------4-44-4-4-4-----------4-2-6-|

|-----------------------------------------------------------|

|------8h10-------------------------------------6---6-------|

|-----------6h8-6p4-4-4---4-3h4-8p6--------6--6---6---6-----|

|-6-66------------------4-----------4-44-4---4----------4-4-|

|------------------------|

|------------------3h6---|

|--------------4h6-----6-|

|-6-66-6-6-4h6-----------|

my empty home...

E|----------------------|-------------------

D|-----6----------------|-----6-------------

A|---8---8-----88-9-8-7-|---6---------------

E|-6---------6----------|-4-----------------

E|------------------------------------------

D|-8---6----8--------6------6--8-----8------

A|---8--------88-9-8------6------8-8---8-8--

E|--------6-------------4-------------------

Chorus

|------------------------------------------------|

|-------------------------3/8-----8-9-8-6-8-6h8--|

|-----------------------------8-8----------------|

|-4-h6\-----4-h6\----4-h6\------------------------|

|------------------------------------------------------|

|-3/6------6\------------------------6---8-----8-------|

|------8-8---------8-8-9\--------8-8---8---8-8---8-8---|

|------------4-4h6---------4-4h6-----------------------|

|----------------------------------------------------------|

|------------------------------------------6---6---6-------|

|--------6h8-6p4-4-44-4-4-4h6-4--------------6---6---------|

|-6-66-6------------------------4-44-4-4-4-----------4-2-6-|

|-----------------------------------------------------------|

|------8h10-------------------------------------6---6-------|

|-----------6h8-6p4-4-4---4-3h4-8p6--------6--6---6---6-----|

|-6-66------------------4-----------4-44-4---4----------4-4-|

|------------------------|

|------------------3h6---|

|--------------4h6-----6-|

|-6-66-6-6-4h6-----------|

guitar break

-------------8-6-----

-----------------8---

---------------------

-6-6-6-6-6-6---------

guitar break

---------------------

---------------------

-------------6-4-----

-6-6-6-6-6-6-----6---

guitar break

-------------8-6---------------------------

--------------------------4--4-4-4-6-6-8-8-

------------------------4--4---------------

-6-6-6-6-6-6-----4-2-----------------------

-------------------------|----------------------------

-------------------------|----------------------------

-4h6-6-6-6-6---------4---|-4h6-6-6-6-6-6--------4-6-8-

-------------6666666---6-|---------------666666-------

--------------------|--------------------------------------|

--------4---4-4/6-6-|--------------------------------------|

------4---4---------|-99-8-8-9-8-8--99-8-8-9-8-8--9-88-6-6-|

-2------------------|--------------------------------------|

I will wait...

|----------------------------------------------------------|

|------------------------------------------6---6---6-------|

|--------6h8-6p4-4-44-4-4-4h6-4--------------6---6---------|

|-6-66-6------------------------4-44-4-4-4-----------4-2-6-|

|-----------------------------------------------------------|

|------8h10-------------------------------------6---6-------|

|-----------6h8-6p4-4-4---4-3h4-8p6--------6--6---6---6-----|

|-6-66------------------4-----------4-44-4---4----------4-4-|

|------------------------------666-8-------------------------------|

|------8----88-----------33-66-------66----66-88-66----------------|

|---88---88----88-8-4-66----------------66----------66-------------|

|-6----------------------------------------------------4444444-2-6-|

|----8-6>--6-5-8-5---------------|

|-10---------------6-6-6---6--6~-|

|------------------------6--6----|

|--------------------------------|

--------------------------------------------------------------

-------8---8p6----6----6---6----------4---4---6----6---6------

---8-8---8---------------6---6----4-4---4----------------6-6--

-6--------------4---44----------2---------------4-4--4--------

------------------------------------------------------

-------8---8p6-------6h8p6------------4---4-----/6----

---8-8---8--------66-------6-6----4-4---4----------8--

-6--------------4---------------2-----------4-4-------

------------------------------------------------|

-8888888-10-6----6---4-----4------4-------6---6-|

---------------6---------4--------------6---6---|

-------------------------------2------4---------|

----------------------------------------|

-8888888------6----6--6h4~---6-4--------|

-----------------6---------------4------|

------------------------------------1~--|

....endlessly

Get this song at:  amazon.com sheetmusicplus.com

Share your thoughts

0 Comments found