Afi

Afi - The Checkered Demon bass tab

-------------------------------------------------------------------------------

THE CHECKERED DEMON - A.F.I.

-------------------------------------------------------------------------------

Intro

G|-----------------------------------------------------------------|

D|---------------------------------------------------------4-4-4-4-|

A|-2-2-2-2-------------------------2-2-2-2-------------------------|

E|---------3-3-3-3-5-5-5-5-2-2-2-2---------3-3-3-3-5-5-5-5---------|

G|-----------------------------------------------------------------------|

D|---------------------------4-2---------------------------------4-4-4-4-|

A|-2-2-2-2-----------------------5-4-2---2-2-2-2-------------------------|

E|---------3-3-3-3-5-5-5-5-2-----------5---------3-3-3-3-5-5-5-5---------|

G|-----------------------------------------------------------------------|

D|---------5-5-4-5-----------4-2-----------------5-5-4-5---------4-4-4-4-|

A|-2-2-1-2-----------------------5-4-2---2-2-1-2-------------------------|

E|-----------------5-5-4-5-2-----------5-----------------5-5-4-5---------|

Chorus1 3x Chorus end 1x

G|-----------------------------------| |---------------------2---|

D|-------------------0-0-0-0-2-2-2-2-| |-------------------0---2-|

A|-2-2-2-2-0-2-2-2-2-----------------| |-2-2-2-2-0-2-2-2-2-------|

E|-----------------------------------| |-------------------------|

Verse

G|-----------------------------------------------------------------------|

D|---------------------------4-2---------------------------------4-4-4-4-|

A|-2-2-2-2-----------------------5-4-2---2-2-2-2-------------------------|

E|---------3-3-3-3-5-5-5-5-2-----------5---------3-3-3-3-5-5-5-5---------|

Chorus2 2x

G|-------------------------------------------------------2---|

D|-------------------0-0-0-0-2-2-2-2-------------------0---2-|

A|-2-2-2-2-0-2-2-2-2-----------------2-2-2-2-0-2-2-2-2-------|

E|-----------------------------------------------------------|

repeat Verse 2x

Bridge

part1 4x part2 1x

G|------------------------| |-------------------------------------------------|

D|---------2-0------------| |-----------------5-5-5-5-8-8-8-10-9-8-9-10-9-8-9-|

A|-2-2-2-2-----------2-0--| |-2-2-2-2-----------------------------------------|

E|-------------3-3-3------| |---------5-5-5-5---------------------------------|

repeat Chorus1

End

G|-------------------|

D|-2-2-2-2-----------|

A|---------5-5-5-5-2-|

E|-------------------|

Get this song at:  amazon.com sheetmusicplus.com

Share your thoughts

0 Comments found