Afi

Afi - Miss Murder Bass guitar tab

Intro

G:--------6--------4-|

D:---6--------4------|

A:------4--------2---|

E:-4--------2--------|

Chorus

G:---------------------6--------4-|

D:--------6666----6--------4------|

A:-------------------4--------2---|

E:-4444---------4--------2--------|

Verse 1

G:-------------4444-------------------------------|

D:--------6666------6666--4444444444--------------|

A:-----------------------------------6666666666---|

E:-4444-------------------------------------------|

G:-------------4444--------------------------------------|

D:-------6666--------6666--4-4-4-4-4-4-------------------|

A:-------------------------------------6-6-6-6-6-6-6-6---|

E:-4444--------------------------------------------------|

Break

G:--------4444--6666------------------------------------------4444-666666---------|

D:-----6666----------6-6-6-6-6-6-6-6-4-4-4-4-4-4-4-4-----6666-------------6>-4>---|

A:------------------------------------------------------------------------------6-|

E:-4444----------------------------------------------4444-------------------------|

Verse 2

G:--------------------------------------------------------------|

D:-6-6----------------------------------------------------------|

A:-------------------2222-4444------------------6-6-6-6-6-6-6-6-|

E:--------44444444--------------2-2-2-2-2-2-2-2-----------------|

Bridge

G:-------------------------------------|

D:-------------------------------------|

A:-66---6-5-4---6-5-44---6-5-4---------|

E:----4-------4--------4-------44-4>---|

G:-----------------------44---------------------------------|

D:------------------4--6------------------------------------|

A:---6-5-4---6-5-66-------------6666-5555-44----6-5-4-2-/6--|

E:-4-------4---------------4444--------------44-------------|Added by tabs-database.com and our distinguished partners

Get this song at:  amazon.com sheetmusicplus.com

Share your thoughts

0 Comments found