Afi

Afi - Born In The Usa bass tab

-------------------------------------------------------------------------------

BORN IN THE USE - AFI

-------------------------------------------------------------------------------

Intro and verse

G|--------------------------------|

D|--------------------------------|

A|--4>---4-9-----7-----5----------|

E|------------7-----5------4-4----|

chorus x2 x1 x3

G|-----------------|--------------------|-----------|

D|-----------------|--------------------|-----------|

A|-7-7-7-7-9-9-9-9-|--11-11-9-9-7-7-5-5-|9-9-7------|

E|-----------------|--------------------|------9----|

Enjoy!

-------------------------------------------------------------------------------

Get this song at:  amazon.com sheetmusicplus.com

Share your thoughts

0 Comments found