Afi

Afi - The Great Dissappointment bass tab

A.F.I. - The Great Dissappointment

Riff 1

G------------------|

D------------------|

A-4444444444444444-|

E------------------|

Riff 2

G-----------------------------------------------------------|

D-4h6-------------4h6-------------4h6-------------7h9-------|

A-----7---------------7-----4-4-4-----7---------------7-----|

E-------7-7-5-5-5-------7-7-------------7-7-5-5-5-------7-7-|

Riff 3 Riff 4

G-----------------------| G---------------------|

D-4h6-------------------| D---------------------|

A-----------77-77-------| A------7777------9999-|

E-----55-55-------77-77-| E-5555------7777------|

Riff 5

G----------------------------------------------|

D----------------------------------------------|

A-00000000-------------------22222222-44444444-|

E----------00000000-22222222-------------------|

Riff 6 Riff 7

G-----------------------------------| G---------------|

D---------2-----------------4-------| D---------------|

A-0-0-0-0---0-0-0-0-2-2-2-2---2-2-4-| A-447774007779--|

E-----------------------------------| E---------------|

Riff 8

G-----------------------------------|

D-----------------------------------|

A-1212121212121212-1414141414141414-|

E-----------------------------------|

Riff 9

G-------------------------------------------------------------------------|

D-------------------------------------------------------------------------|

A-00000000-------------------44444444-00000000----------22222222----------|

E----------00000000-22222222-------------------00000000----------22222222-|

Riff 10 Riff 11 Riff 12

G---------6-| G-------------------------| G-------------|

D-----------| D-------------------------| D-------------|

A-4-4-4-4---| A-44-22-44-77-44-22-------| A-11-11-11-11-|

E-----------| E-------------------44-55-| E-------------|

Riff 13 Riff 1 Variation

G---------------------------| G-------------|

D---------------------------| D-7h9-76-76-4-|

A-------------------------4-| A-------------|

E-5554440--000002--222000---| E-------------|

Order:

wait about 31 seconds then...

Riff 1 x 3

Riff 2 x 2

Riff 3 x 1

Riff 4 x 1

Riff 2 x 2

Riff 3 x 1

Riff 4 x 1

Riff 2 x 2

Riff 4 x 1

Riff 5 x 2

Riff 6 x 1

Riff 7 x 1

Riff 8 x 1

Riff 3 x 1

Riff 5 x 2

Riff 9 x 1

Riff 10x 1

Riff 11x 1

Riff 12x 1

Riff 13x 1

Riff 1 x 2 with variation at end

Riff 4 x 1

Riff 5 x 2

Riff 9 x 1

Taken from The BassMasta -- http://www.tabs-database.com

Get this song at:  amazon.com sheetmusicplus.com

Share your thoughts

0 Comments found