Afi

Afi - Totalimmortal bass tab

this tab is from the mouth of afi's bass player

intro:

|-----------------------------------7-9-7------------------------------9--|

|-----------------------------5-7/9-------9\---------------------5--7--9--|

|------7-------5---------7-------------------------7---------5------------|

|--0-------3--------0--------------------------0--------3-----------------|

verse:

|-----------------------------------------------------------------------------------|

|-----------------------------------------------------------------------------------|

|--7\---5-------7\-------5-----7\---5-----7\---5---7\----5------7\---5----------8---|

|----------3---------3------3----5----6--3------3-------3------------------3---7----|

pre chorus:

|------over and over----|

|----(sliding at end)---|

|----------7------------|

|-----------------------|

chorus:

|-------------------(first half)-----------------------------|

|------------------------------------------------------------|

|--7----7-5-7----------2-3-4-5----5-4-5-6-7--5--7--------5-6-|

|-------------2-3----3-----------------------------3--7------|

|-------------(second half)-------------------------/11------|

|------------------------------------------------/9-----12---|

|--7----7-5-7----------2-3-4-5----5-4-5-6--X--7--------------|

|-------------2-3----3---------------------------------------|

breakdown:

|-----(repeat)------|--(repeat)---------------------------------------------------|

|-------------------|---------------------------------------------5-7-------------|

|--5-7---5-7---5-7--|--5-7---5-7---5-7-----3-5---------5-7---5-7------------7-8---|

|-------------------|------------------2-3-------5-7------------------5-7---------|

Get this song at:  amazon.com sheetmusicplus.com

Share your thoughts

0 Comments found