Afi

Afi - Six To Eight bass tab

|-------- x2 |---------- x2 |------

|-6h7---- |-------0r- |-6h7--

|----0--- |-0r-3r---- |----0-

|-------- |------------ |------

verse

|------------------------------------------ x4

|-------------2-0-----------------2-0----0-

|-0-0-1-2-3-3-----3-0-----3-4-5-5------3---

|---------------------3-3------------------

chorus

|------------------------------------- x4

|---------------------0h2---------0h2-

|-3-3-3-3-----------------------------

|---------3-2--0-0-0-0----0-0-0-0-----

verse

chorus

breakdown

|---------- x4

|-------0r-

|-0r-3r----

|----------

chorus 2

|------------------------------------------- x3

|---------------------0h2---------0h2-------

|-3-3-3-3-----------------------------------

|---------3-2--0-0-0-0----0-0-0-0-----------

|--------

|--------

|-3-3-3-3

|--------

solo

|---------------------------------------------------------

|---------------------------------------------------------

|-----------------------0-3-3-3-3-3-3-3-3-----------------

|-0-0-0-0-0-0-0-0-0-0-0-------------------3-3-3-3-3-3-3-3-

|------------------------- x3

|---------0h2---------0h2-

|-------------------------

|-0-0-0-0-----0-0-0-0-----

outro

|----------

|----------

|-3r-------

|----3r-0r-

Get this song at:  amazon.com sheetmusicplus.com

Share your thoughts

0 Comments found