Afi

Afi - Summer Shudder guitar tab

[Summer Shudder]

[AFI]

[Decemberunderground]

By: Joshua Oliveira

Tuning:C# G# C# F# A# D#

[Noises] - [00:00] - [00:14]

[Intro/Verse 1] - [00:14] - [00:36]

V V

- ------------------------------------------------------------------|

- ------------------------------------------------------------------|

- -------7----------------9p7------------7----------------9p7h9-----|

- -7/9-9-7-9-7/9-129-9-0~----x7~--7/9-9-7-9-7/9-129-9-0~------x7~-|

- -7/9-9-5-9-7/9-129-9-0~----x7~--7/9-9-5-9-7/9-129-9-0~------x7~-|

- -7/9-9---9-7/9-129-9-0~----x7~--7/9-9---9-7/9-129-9-0~------x7~-|

V

--------------7-------------------------------------------------|

--------------7-------------------------------------------------|

--------------7------------9p7-------------7--------------------|

-7/9-9-129-9----7/9-129-0~-----x7~---7/9-9-7-9-7/9-129-9-0-0-0-|

-7/9-9-129-9----7/9-129-0~-----x7~---7/9-9-5-9-7/9-129-9-0-0-0-|

-7/9-9-129-9----7/9-129-0~-----x7~---7/9-9---9-7/9-129-9-0-0-0-|

PM .....

-----------------------|

-----------------------|

-----------------------|

-0-0-0-0-x-x-x-x-x-x-x-|

-0-0-0-0-x-x-x-x-x-x-x-|

-0-0-0-0-x-x-x-x-x-x-x-|

.

[Chorus 1, Guitar 1] - [00:36] - [00:48]

V

- --------------------------------------------------------------|

- --------------------------------------------------------------|

- --------------------------------------------------------------|

- -5-5-5-5--7-7-7-7--9-9-9-9--9-9-9-9--5-5-5-5--7-7-7-7-0~--x7~-|

- -5-5-5-5--7-7-7-7--9-9-9-9--9-9-9-9--5-5-5-5--7-7-7-7-0~--x7~-|

- -5-5-5-5--7-7-7-7--9-9-9-9--9-9-9-9--5-5-5-5--7-7-7-7-0~--x7~-|

[Chorus 1, Guitar 2] - [00:37] - [00:48]

- --------------------------------------------------------------|

- --------------10h11p10----------------------------------------|

- -11-11-11-11----------12p11~--These two scores are not in any-|

- -x--x--x--x-------------------way lined up, just so you know.-|

- -9--9--9--9---------------------------------------------------|

- -0--0--0--0---------------------------------------------------|

[Bridge 1] - [00:48] - [00:59]

- ----------------------------------------------------------------------|

- ----------------------------------------------------------------------|

- -----------------12-------11-------7/11-------------------14----------|

- -9-9-9-9-9-9-9-9----9-9-9----9-9-9-9/12-12-12-12-12-12-12----12-12-12-|

- ----------------------------------------------------------------------|

- ----------------------------------------------------------------------|

PM ............... ..... ..... ................. ........

-----------------------------------------------------------------------|

-----------------------------------------------------------------------|

-12p11-----------------------12-------11-------7-7-7-7-7-7-7-7-6-6-6-6-|

-------14p12-9-9-9-9-9-9-9-9----9-9-9----9-9-9-9-9-9-9-0-0-0-0-0-0-0-0-|

-----------------------------------------------------------------------|

-----------------------------------------------------------------------|

PM ............... ..... .........

[Verse 2 Bass] - [00:59] - [01:07]

[Verse 2 Guitar] - [01:07] - [01:21]

- --------------------------------------------------------------------|

- -00-000-000-000--------------0--------------------------------------|

- -44-444-444-444--------------4------------11-11-11-11-9-9-9-9-12-12-|

- -----------------2h4-4-7-4-4---7/9-129-9-0~------------------------|

- -----------------0h2-2-5-2-2---7/9-129-9-0~------------------------|

- -------------------------------7/9-129-9-0~------------------------|

-------------------------------------------------------------------|

-------------------------------------------------------------------|

-12-12-11-11-11-11---------7-7------------------------------Flange-|

-------------------7/9-9-9-7-7-9-9-7/9-129-9-0-0-0-0-0-0-0--Here--|

-------------------7/9-9-9-5-5-9-9-7/9-129-9-0-0-0-0-0-0-0--------|

-------------------7/9-9-9-----9-9-7/9-129-9-0-0-0-0-0-0-0--------|

PM .......

[Chorus 2, Guitar 1] - [01:21] - [01:44]

- -------------------------------------------------------------------|

- -------------------------------------------------------------------|

- -------------------------------------------------------------------|

- -5-5-5-5--7-7-7-7--9-9-9-9--9-9-9-9--5-5-5-5--7-7-7-7--9-9-9-9-9-9-|

- -5-5-5-5--7-7-7-7--9-9-9-9--9-9-9-9--5-5-5-5--7-7-7-7--9-9-9-9-9-9-|

- -5-5-5-5--7-7-7-7--9-9-9-9--9-9-9-9--5-5-5-5--7-7-7-7--9-9-9-9-9-9-|

------------------------------------------------------------------|

------------------------------------------------------------------|

------------------------------------------------------------------|

-9-9-0-0-0-0-0-0-0-0--5-5-5-5--7-7-7-7--9-9-9-9--9-9-9-9--5-5-5-5-|

-9-9-0-0-0-0-0-0-0-0--5-5-5-5--7-7-7-7--9-9-9-9--9-9-9-9--5-5-5-5-|

-9-9-0-0-0-0-0-0-0-0--5-5-5-5--7-7-7-7--9-9-9-9--9-9-9-9--5-5-5-5-|

V

-----------------|

-----------------|

-----------------|

-7-7-7-7--0~--x7-|

-7-7-7-7--0~--x7-|

-7-7-7-7--0~--x7-|

[Chorus 2, Guitar 2] - [01:22] - [01:44]

- ---------------------------------------------|

- --------------10h11p10-----------------------|

- -11-11-11-11----------12p11~-----9p7h9p7/11~-|

- -x--x--x--x----------------------------------|

- -9--9--9--9----------------------------------|

- -0--0--0--0----------------------------------|

[Bridge 2, Guitar 1] - [01:44] - [02:18]

- ----------------------------------------------------------------------|

- ----------------------------------------------------------------------|

- -----------------12-------11-------7/11-------------------14----------|

- -9-9-9-9-9-9-9-9----9-9-9----9-9-9-9/12-12-12-12-12-12-12----12-12-12-|

- ----------------------------------------------------------------------|

- ----------------------------------------------------------------------|

PM ............... ..... ..... ................. ........

-----------------------------------------------------------------------|

-----------------------------------------------------------------------|

-12p11-----------------------12-------11-------7-7-7-7-7-7-7-7-6-6-6-6-|

-------14p12-9-9-9-9-9-9-9-9----9-9-9----9-9-9-9-9-9-9-0-0-0-0-0-0-0-0-|

-----------------------------------------------------------------------|

-----------------------------------------------------------------------|

PM ............... ..... .........

---------------------------------------------------------------------|

---------------------------------------------------------------------|

---------------------------------------------------------------------|

-0-0-0-0--7~-9-9-9-9--7~-5-5-5-5-5-5-5-5-7-7-7-7-7-7-7-7-9-9-9-9-9-9-|

-0-0-0-0--7~-9-9-9-9--7~-5-5-5-5-5-5-5-5-7-7-7-7-7-7-7-7-9-9-9-9-9-9-|

-0-0-0-0--7~-9-9-9-9--7~-5-5-5-5-5-5-5-5-7-7-7-7-7-7-7-7-9-9-9-9-9-9-|

---------------------------------------------------------------------|

---------------------------------------------------------------------|

---------------------------------------------------------------------|

-9-9-5-5-5-5-5-5-5-5-0-0-0-0--7~-9-9-9-9--7~-5-5-5-5-5-5-5-5-7-7-7-7-|

-9-9-5-5-5-5-5-5-5-5-0-0-0-0--7~-9-9-9-9--7~-5-5-5-5-5-5-5-5-7-7-7-7-|

-9-9-5-5-5-5-5-5-5-5-0-0-0-0--7~-9-9-9-9--7~-5-5-5-5-5-5-5-5-7-7-7-7-|

-----------------------------------------|

-----------------------------------------|

-----------------------------------------|

-7-7-7-7-9-9-9-9-9-9-9-9-5-5-5-5-5-5-5-5-|

-7-7-7-7-9-9-9-9-9-9-9-9-5-5-5-5-5-5-5-5-|

-7-7-7-7-9-9-9-9-9-9-9-9-5-5-5-5-5-5-5-5-|

[Bridge 2, Guitar 2] - [01:56] - [02:18]

- --------------------------------------------------------------------|

- --------------------------------------------------------------------|

- -7-7-7-7-7-7-7-7--9-9-9-9-9/11-11-11-11-11-11-11-11-11--11-11-------|

- --------------------------------------------------------------12-12-|

- --------------------------------------------------------------------|

- --------------------------------------------------------------------|

--------------------------------------9-9-9-9-9/10-10-10-14-14-14-14-|

-10-10-------------------10-10---------------------------------------|

-------------11-11---------------------------------------------------|

-------12-12-------12-12-------12-12---------------------------------|

---------------------------------------------------------------------|

---------------------------------------------------------------------|

-14-14-14-14--------------------------------------------------------|

--------------------------------------------------------------------|

--------------7-7-7-7-7-7-7-7--9-9-9-9-9/11-11-11-11-11-11-11-11-11-|

--------------------------------------------------------------------|

--------------------------------------------------------------------|

--------------------------------------------------------------------|

-------------------------------------------------9-9-9-9-9/10-10-14-|

-------------10-10-------------------10-10--------------------------|

-11-11-------------------11-11--------------------------------------|

-------12-12-------12-12-------12-12-------12-12--------------------|

--------------------------------------------------------------------|

--------------------------------------------------------------------|

-14-14-14-14-14-14-14-|

----------------------|

----------------------|

----------------------|

----------------------|

----------------------|

[Fill] - [02:18] - [02:29]

- -14~-15-12~-------17~-|

- -----------14-15~-----|

- ----------------------|

- ------Flange-On.------|

- ----------------------|

- ----------------------|

[Singing] - [02:29] - [02:40]

[Outro, Guitar 1] - [02:40] - [03:07]

- -------------------------------------------------------------------|

- -------------------------------------------------------------------|

- -------------------------------------------------------------------|

- -5-5-5-5--7-7-7-7--9-9-9-9--9-9-9-9--5-5-5-5--7-7-7-7--9-9-9-9-9-9-|

- -5-5-5-5--7-7-7-7--9-9-9-9--9-9-9-9--5-5-5-5--7-7-7-7--9-9-9-9-9-9-|

- -5-5-5-5--7-7-7-7--9-9-9-9--9-9-9-9--5-5-5-5--7-7-7-7--9-9-9-9-9-9-|

------------------------------------------------------------------|

------------------------------------------------------------------|

------------------------------------------------------------------|

-9-9-0-0-0-0-0-0-0-0--5-5-5-5--7-7-7-7--9-9-9-9--9-9-9-9--5-5-5-5-|

-9-9-0-0-0-0-0-0-0-0--5-5-5-5--7-7-7-7--9-9-9-9--9-9-9-9--5-5-5-5-|

-9-9-0-0-0-0-0-0-0-0--5-5-5-5--7-7-7-7--9-9-9-9--9-9-9-9--5-5-5-5-|

V

-----------------|

-----------------|

-----------------|

-7-7-7-7--0~--x7-|

-7-7-7-7--0~--x7-|

-7-7-7-7--0~--x7-|

[Outro, Guitar 2] - [02:41] - [03:07]

- ---------------------------------------------|

- --------------10h11p10-----------------------|

- -11-11-11-11----------12p11~-----9p7h9p7/11~-|

- -x--x--x--x----------------------------------|

- -9--9--9--9----------------------------------|

- -0--0--0--0----------------------------------|

[Symbols Used]

~ Let Ring.

/ Slide Up.

Slide Down.

x Dead Note.

p Pull Off.

h Hammer On.

V Up Stroke (Hit the strings towards you.).

Notes with these around them a Natural Harmonics.

PM... Palm Mute the notes with Dots (.) under them.

Get this song at:  amazon.com sheetmusicplus.com

Share your thoughts

0 Comments found