Afi

Afi - The New Patron Saints And Angels bass tab

Song: The New Patron Saints and Angels

Band: AFI

Album: Shut Your Mouth and Open Your Eyes

tabbed by: Luke (fightingmonkey@yahoo.com)

Intro/Chorus

G:---------------------------------------]

D:---------------------------------------]

A:-9-5555-------9------7777-2-9-5-2-]

E:---------5-555----5555-----------------]

Verse

G:----------------------------]

D:----------------------------]

A:-7-5-3-5----2-33333-22222-] x2

E:-----------5---------------]

Chorus

Verse x2

Chorus x2

Bridge

G:-------------] [-----------]

D:-------------] [-----------]

A:----5-33-5-3-] x5 [-5-33-5-33-] x4

E:-0----------] [-----------]

Chorus x2

Thats the lot. Enjoy!

Get this song at:  amazon.com sheetmusicplus.com

Share your thoughts

0 Comments found