Afi

Afi - Perfect Fit bass tab

Artist: AFI

Song: Perfect Fit

Tabbed by: Stevie Prozak

Intro/Interlude:

|---------------|---------------|---------------|-----------------|

|---------------|---------------|---------------|-3-3-3-3---------|

|-0-0-0-0-3-5-3-|-0-0-0-0-3-----|-0-0-0-0-3-5-3-|---------3-3-3-3-|

|---------------|-----------1-3-|---------------|-----------------|

Verse:

|----------------|

|----------------|

|-0~-3~-5~-3~-2~-|

|----------------|

Chorus:

|------------------------|

|-----------3------------|

|-0~-3-2-3~---3-5~-3~-2~-|

|------------------------|

Bridge:

|-------------|

|----3~----5~-|

|-0~----3~----|

|-------------|

Get this song at:  amazon.com sheetmusicplus.com

Share your thoughts

0 Comments found