Afi

Afi - Miss Murder (100% Perfect Or I'll Eat My Bass) bass tab

A.F.I.

Miss Murder

Tuning: Standard-Slightly Flat

Tabbed By: Mitch

------------------------------

0:00

Intro

G[----------6-----4-----]

D[---6----------------4-]x2

A[--------4----\2-------]

E[-4----4-----------2---]

0:07

Chorus

G[----------6-----4-----]

D[---6----------------4-]x3

A[--------4----\2-------]

E[-4----4-----------2---]

G[----------]

D[----------]

A[----------]

E[-22222222-]

G[----------6-----4-----]

D[---6----------------4-]x2

A[--------4----\2-------]

E[-4----4-----------2---]

0:26

Verse

G[-----------4444-------------------------]

D[------6666------6666--44444444----------]x2

A[-------------------------------66666666-]

E[-4444-----------------------------------]

Pre-Chorus

G[-----------------------------------------]

D[-----------------------------------------]

A[-----------------------------------------]

E[-4-4444444-4-4444444-2-2222222-0-0000000-]

G[-------------------------------]

D[-------------------------------]

A[-------------------------------]

E[-4-4444444-4-4444444-2-2222222-]

0:53

Chorus

G[----------6-----4-----]

D[---6----------------4-]x3

A[--------4----\2-------]

E[-4----4-----------2---]

G[----------]

D[----------]

A[----------]

E[-22222222-]

1:07

G[-----------4444-6666--------------------]

D[------6666------------66666666----------]x2

A[-------------------------------44444444-]

E[-4444-----------------------------------]

Verse

1:19

G[-------------------]

D[-66---66---66---66-]

A[-------------------]

E[-------------------]

G[------------------------------(one's)-]

D[-----------------------------11111111-]

A[----------2222-4444-------------------]

E[-44444444-----------22222222----------]

Pre-Chorus

G[-----------------------------------------]

D[-----------------------------------------]

A[-----------------------------------------]

E[-4-4444444-4-4444444-2-2222222-0-0000000-]

G[-------------------------------]

D[-------------------------------]

A[-------------------------------]

E[-4-4444444-4-4444444-2-2222222-]

1:47

Chorus

G[----------6-----4-----]

D[---6----------------4-]x3

A[--------4----\2-------]

E[-4----4-----------2---]

G[----------]

D[----------]

A[----------]

E[-22222222-]

Then Rest Until...

2:07

Bridge

G[----|---------------------|-------------------]

D[----|------6666-----------|------6666---------]

A[-66-|-----------6666-5555-|-----------6666----]

E[----|-4444----------------|-4444-----------77-]

G[-----------------------------------------]

D[------6666-------------------------------]

A[-----------6666-5555---------------------]

E[-4444----------------44---------44444444-]

G[---------------------|-------------------]

D[------6666-----------|------6666---------]

A[-----------6666-5555-|-----------6666----]

E[-4444----------------|-4444-----------77-]

G[-----------------------------------------]

D[------6666----------------------1~-Hold--]

A[-----------6666-5555---------------------]

E[-4444----------------44------------------]

Hold D[-1~-] Until...

2:46

Chorus

G[----------6-----4-----]

D[---6----------------4-]x3

A[--------4----\2-------]

E[-4----4-----------2---]

G[----------]

D[----------]

A[----------]

E[-22222222-]

G[----------6-----4-----]

D[---6----------------4-]x3

A[--------4----\2-------]

E[-4----4-----------2---]

G[----------]

D[----------]

A[----------]

E[-22222222-]

Ending

G[----]

D[----]

A[-66-]

E[----]

Im sure its right. I haven't seen the Bridge correct yet. Just listen

closely. Have Fun.

Get this song at:  amazon.com sheetmusicplus.com

Share your thoughts

0 Comments found