Afi

Afi - The Mother In Me guitar tab

-------------------------------------------------------------------------------

THE MOTHER IN ME - A.F.I

-------------------------------------------------------------------------------

By: Sith Lord Sith_LordGD@yahoo.com

From: Answer that and Stay Fashionable

INTRO:

PM.......................................................................

e|------------------------------------------------------------------------|

B|------------------------------------------------------------------------|

G|------------------------------------------------------------------------|

D|--9-9-9-9-9-9-9-9-9-9-9-9-9-9-9-9---------------------------------------|

A|--7-7-7-7-7-7-7-7-6-6-6-6-6-6-6-6-9-9-9-9-9-9-9-9-9-9-9-9-9-9-9-9-------|

E|----------------------------------7-7-7-7-7-7-7-7-6-6-6-6-6-6-6-6-------|

PM........................................

e|---------------------------------------------------------------------------|

B|---------------------------------------------------------------------------|

G|-------14-14-14-------14-14-14---------------------------------------------|

D|-------14-14-14-------14-14-14---9-9-9-9-9-9-9-9-9-9-9-9-9-9-9-9-----------|

A|--7-7--12-12-12--7-7--12-12-12---7-7-7-7-7-7-7-7-6-6-6-6-6-6-6-6-9-9-9-9-9-|

E|--5-5------------5-5---------------------------------------------7-7-7-7-7-|

PM..............................................

e|---------------------------------------------------------------------------|

B|----------------------------------------------------------9-10-9-9-9-------|

G|----------------------------------------------------------9--9-9-9-9-------|

D|----------------------------------------------------------9--9-9-9-9-------|

A|--9-9-9-9-9-9-9-9-9-9-9---7-7-7-7-7-7-7-7-7-7-7-7-7-7-7---7--7-7-7-7-------|

E|--7-7-7-6-6-6-6-6-6-6-6---5-5-5-5-5-5-5-5-5-5-5-5-5-5-5--------------------|

e|---------------------------------------------------------------------------|

B|--------------------9-10-9-9-9---------------------------------------------|

G|--------------------9--9-9-9-9---------------------------------------------|

D|--------------------9--9-9-9-9---------------------------------------------|

A|10-10-10-10-12-9-9--7--7-7-7-7-10-10-10-10-12-9-9--------------------------|

E|-8--8--8--8-10-7-7--------------8--8--8--8-10-7-7--------------------------|

VERSE:

e|---------------------------------------------------------------------------|

B|---------------------------------------------------------------------------|

G|---------------------------------------------------------------------------|

D|-9-9-9-9-9-9-9-9-----------------------------------------------------------|

A|-7-7-7-7-7-7-7-7--10-10-10-10-12-9-9---------------------------------------|

E|-------------------8--8--8--8-10-7-7---------------------------------------|

CHORUS:

e|---------------------------------------------------------------------------|

B|---------------------------------------------------------------------------|

G|---------------------------------------------------------------------------|

D|-9-9-9-9-9-9-9-9-----------------------------------------------------------|

A|-7-7-7-7-7-7-7-7-10-10-10-10-7-7-7-7---------------------------------------|

E|------------------8--8--8--8-5-5-5-5---------------------------------------|

================================================================================

Get this song at:  amazon.com sheetmusicplus.com

Share your thoughts

0 Comments found