Afi

Afi - Reivers Music guitar tab

Artsit: AFI

Album: 336

Song: Riever's Music

Tabbed by deadchild

Verse:

e|---------------------------------|

B|-6-------6-------6-------6-6-6-6-|

G|-8-------8----11-8-------8-8-8-8-|

D|-8-11-11-8-11-11-8-11-11-8-8-8-8-|

A|-6--9--8-6--9--9-6--9--8-6-6-6-6-|

E|-6-------6-----9-6-------6-6-6-6-|

Pre-chorus:

e|---------------------|

B|----------------9--9-|

G|----6-8--------11--9-|

D|-11-------8~---11-11-|

A|-11-4-6---8~----9-11-|

E|--9-------6~----9--9-|

Chorus:

e|-----------------|

B|-6--9--9----9--9-|

G|-8-11--9-7-11--9-|

D|-8-11-11-9-11-11-|

A|-6--9-11-9--9-11-|

E|-6--9--9-7--9--9-|

Before Verse 2:

e|---------6--6------|

B|-666-6~---7---7----|

G|-888-8~-8--8----8~-|

D|-888-8~------------|

A|-666-6~------------|

E|-666-6~------------|

Verse 2:

Same as verse 1

Only with this note in the middle of it

e|----|

B|-12-|

G|-14-|

D|----|

A|----|

E|----|

Bridge:

e|-----6--6--------6--6---------------------|

B|-6~---6---6-------6---6-------22-2~----6~-|

G|-8~-8--8----8~--8--8----8~----44-2~----5~-|

D|-8~---------------------------44-4~-33-5~-|

A|-6~---------------------------22-4~-33-6~-|

E|-6----------------------------22-2~-11-6~-|

E|------------------|

G|------------------|

D|-8-10-11-13-8-8-8-|

A|------------------|

E|-6--8--9-11-6-6-6-|

Figure out the order and palm muting on your own.

Get this song at:  amazon.com sheetmusicplus.com

Share your thoughts

0 Comments found