Afi

Afi - Modern Epic guitar tab

-------------------------------------------------------------------------------

MODERN EPIC - AFI

-------------------------------------------------------------------------------

Intro:

e-|----------------------------------------------|

B-|----------------------------------------------|

G-|----------------------------------------------|

D-|-----7--7-5-9------7--7-5-9-------------------|

A-|-7-5-5--5-3-7--7-5-5--5-3-7---7-7-7-7-7-7-7-7-|

E-|-5-3-----------5------------------------------|

Verse:

e-|-----------------------------------------------------------------|

B-|-----------------------------------------------------------------|

G-|-----------------------------------------------------------------|

D-|---------7-7-------------7-7-----7-7-7-7-7-7-7-7-9-9-9-9-9-9-9-9-|

A-|-7-7-7-7-5-5-7-7-7-7-7-7-5-5-7-7-5-5-5-5-5-5-5-5-7-7-7-7-7-7-7-7-|

E-|-5-5-5-5-----5-5-5-5-5-5-----5-5---------------------------------|

Chorus:

e-|-----------------------------------------------------|

B-|-----------------------------------------------------|

G-|-----------------------------------------------------|

D-|---------7-7-7-7-12-12-12-12-9-9-9-9-7-7-7-7-9-7-----|

A-|-7-7-7-7-5-5-5-5-10-10-10-10-7-7-7-7-5-5-5-5-7-5-9-5-|

E-|-5-5-5-5-----------------------------------------7-3-|

-------------------------------------------------------------------------------

Get this song at:  amazon.com sheetmusicplus.com

Share your thoughts

0 Comments found