Afi

Afi - Wester guitar tab

-------------------------------------------------------------------------------

WESTER - AFI

-------------------------------------------------------------------------------

by: pattywax43, Blueliner, and retreat 666

compiled by: pattywax43

First of all, i got to give credit to all the people in the AFI message board

that helped with the tab. Keep in mind that i'm only claiming figuring out the

the verse and chorus and that's it. Everyone else who helped will be mentioned

at their respective part. Enjoy.

Intro (credit given to Blueliner - i had to change two notes and that's it)

Bar 3 with first finger & keep held down

3 while playing other notes

Cm

|-3-x-x-x-x----------------------------|

|-4-x-x-x-x-3--3-4--3-x-x-x-x-4--3-3-3-|

|-5-x-x-x-x-3--3-3--3-x-x-x-x-3--3-5-3-|

|-5-x-x-x-x-3--3-3--3-x-x-x-x-3--3-3-3-|

|-3-x-x-x-x----------------------------|

|--------------------------------------|

Cm G# A# D#

|-3-x-x-x-x---------4-4--6--6--|

|-4-x-x-x-x-3--3-4--4-4--6--8--|

|-5-x-x-x-x-3--3-3--5-5--7--8--|

|-5-x-x-x-x-3--3-3--6-6--8--8--|

|-3-x-x-x-x---------6-6--8--6--|

|-------------------4-4--6--6--|

|-3-x-x-x-x----------------------------|

|-4-x-x-x-x-3--3-4--3-x-x-x-x-4--3-3-3-|

|-5-x-x-x-x-3--3-3--3-x-x-x-x-3--3-5-3-|

|-5-x-x-x-x-3--3-3--3-x-x-x-x-3--3-3-3-|

|-3-x-x-x-x----------------------------|

|--------------------------------------|

|-3-x-x-x-x---------4-4--6--6--6-x-x-x-6-6-6-3-|

|-4-x-x-x-x-3--3-4--4-4--6--8--6-x-x-x-6-6-6-5-|

|-5-x-x-x-x-3--3-3--5-5--7--8--7-x-x-x-7-7-7-5-|

|-5-x-x-x-x-3--3-3--6-6--8--8--8-x-x-x-8-8-8-5-|

|-3-x-x-x-x---------6-6--8--6--8-x-x-x-8-8-8-3-|

|-------------------4-4--6--6--6-x-x-x-6-6-6-3-|

pm. .

keep palm muting that chord until davey starts

singing.

Verse:

key:

[#] - pickslide

* - strum a lot

first verse: [Note 1]

E------8*-----------8*---3*--4*--6--6--8*--8---10------11---

B------8------------10---5---4---8--6--8---10--12------11---

G------9----13--15--10---5---5---8--7--9---10--12--13--12---

D------10---x---x---10---5---6---8--8--10--10--12--x---13---

A-[#]--10---11--13--8----3---6---6--8--10--8---10--11--13---

E------8------------8----3---4---6--6--8---8---10------11---

E-3*----3--4*--6--6--4*--3*-------------

B-4--3--4--4---8--6--4---3--------------

G-5--3--5--5---8--7--5---4--------------

D-5--3--5--6---8--8--6---5--------------

A-3--3--3--6---6--8--6---5--------------

E-3-----3--4---6--6--4---3--------------

Note 1 - Every verse after the first starts here

Note 2 - For the ending of each verse (during the part where Davey say "Oh...")

just mess around with the Cm by trying to play parts of the intro fast

Chorus:

e--3---6---6---4---6--

B--5---8---6---4---8--

G--5---8---7---5---8--

D--5---8---8---6---8--

A--3---6---8---6---6--

E--3---6---6---4---6--

Breakdown - (credit given to retreat666 for first part)

First part:

ok. this is what i think the breakdown or bridge is... very close if not exact.

it starts in palm mute first and after i think it's in open with davey saying:

"I can feel you dreaming of me"

E-----------------------------------

B-----------------------------------

G-----------------------------------

D--5-3-6-5-5---6-5-8----------------

A--3-3-3-3-3---6-6-6--8-8-----------

E---------------------6-6-----------

Second part:

here's the second part of the breakdown (the part without palm muting,

with the "one world away..." in the background vocals):

E--3--4--6--6---

B--5--4--8--6---

G--5--5--8--7---

D--5--6--8--8---

A--3--6--6--8---

E--3--4--6--6---

each note is played 4x with downstrokes

whole thing played four times then this:

E-4----------------------6----

B-4----------------------6----

G-5----------------------7----

D-6-hold, then slide to--8----

A-6----------------------8----

E-4----------------------6----

That's pretty much it. Anything that doesn't have credit given to anyone was

doen by me. Send me any questions or comments to pattywax4343@aol.com. Thanks

-------------------------------------------------------------------------------

Get this song at:  amazon.com sheetmusicplus.com

Share your thoughts

0 Comments found