Afi

Afi - Prayer Position Intro guitar tab

AFI - Prayer Position Intro

It sounds 100%, when i have the time, i might tab the whole song

e|-----0-0-0-0-0-0-0-0----0-0-0-0-0-0-0-0-0-0-0-0-0---|

B|---3/5-5-5-5-5-5-5-5--3/5-5-5-5-5-5-5-6-6-6-6-6-6---|

G|----------------------------------------------------|

D|----------------------------------------------------|

A|----------------------------------------------------|

E|----------------------------------------------------|

e|-----0-0-0-0-0-0-0-0----0-0-0-0-0-0-0-0-0-0-0-0-0---|

B|---3/5-5-5-5-5-5-5-5--3/5-5-5-5-5-5-5-6-6-6-6-6-6---|

G|----------------------------------------------------|

D|----------------------------------------------------|

A|----------------------------------------------------|

E|----------------------------------------------------|

e|-----0-0-0-0-0-0-0-0----0-0-0-0-0-0-0-0-0-0-0-0-0---|

B|---3/5-5-5-5-5-5-5-5--3/5-5-5-5-5-5-5-6-6-6-6-6-6---|

G|----------------------------------------------------|

D|----------------------------------------------------|

A|----------------------------------------------------|

E|----------------------------------------------------|

e|-----0-0-0-0-0-0-0-0----------------------|

B|---3/5-5-5-5-5-5-5-5----------------------|

G|------------------------------------------|

D|--------------------9-9-9-9-9-------------|

A|--------------------9-9-9-9-9-------------|

E|--------------------7-7-7-7-7-------------|

pm .........

Get this song at:  amazon.com sheetmusicplus.com

Share your thoughts

0 Comments found